  0
SECTION
  2
HEADER
  9
$ACADVER
  1
AC1021
  9
$ACADMAINTVER
 70
     1
  9
$DWGCODEPAGE
  3
ANSI_1252
  9
$LASTSAVEDBY
  1
BJB
  9
$INSBASE
 10
-10913.08211020032
 20
-23773.56534708897
 30
0.0
  9
$EXTMIN
 10
-10913.84479267713
 20
-23910.29224861132
 30
-0.0000000000000058
  9
$EXTMAX
 10
-9779.388122731226
 20
-22438.26963251309
 30
0.0000000000000104
  9
$LIMMIN
 10
0.0
 20
0.0
  9
$LIMMAX
 10
420.0
 20
297.0
  9
$ORTHOMODE
 70
     1
  9
$REGENMODE
 70
     1
  9
$FILLMODE
 70
     1
  9
$QTEXTMODE
 70
     0
  9
$MIRRTEXT
 70
     0
  9
$LTSCALE
 40
100.0
  9
$ATTMODE
 70
     1
  9
$TEXTSIZE
 40
536.1425458167722
  9
$TRACEWID
 40
1.0
  9
$TEXTSTYLE
  7
Standard
  9
$CLAYER
  8
Access .3
  9
$CELTYPE
  6
ByLayer
  9
$CECOLOR
 62
   256
  9
$CELTSCALE
 40
1.0
  9
$DISPSILH
 70
     0
  9
$DIMSCALE
 40
10.0
  9
$DIMASZ
 40
2.5
  9
$DIMEXO
 40
1.0
  9
$DIMDLI
 40
1.0
  9
$DIMRND
 40
0.0
  9
$DIMDLE
 40
2.0
  9
$DIMEXE
 40
2.0
  9
$DIMTP
 40
0.0
  9
$DIMTM
 40
0.0
  9
$DIMTXT
 40
1.8
  9
$DIMCEN
 40
2.5
  9
$DIMTSZ
 40
0.0
  9
$DIMTOL
 70
     0
  9
$DIMLIM
 70
     0
  9
$DIMTIH
 70
     0
  9
$DIMTOH
 70
     0
  9
$DIMSE1
 70
     0
  9
$DIMSE2
 70
     0
  9
$DIMTAD
 70
     1
  9
$DIMZIN
 70
     9
  9
$DIMBLK
  1

  9
$DIMASO
 70
     1
  9
$DIMSHO
 70
     1
  9
$DIMPOST
  1

  9
$DIMAPOST
  1

  9
$DIMALT
 70
     0
  9
$DIMALTD
 70
     4
  9
$DIMALTF
 40
0.0394
  9
$DIMLFAC
 40
1.0
  9
$DIMTOFL
 70
     0
  9
$DIMTVP
 40
0.0
  9
$DIMTIX
 70
     0
  9
$DIMSOXD
 70
     0
  9
$DIMSAH
 70
     1
  9
$DIMBLK1
  1
ARCHTICK
  9
$DIMBLK2
  1
ARCHTICK
  9
$DIMSTYLE
  2
Access
  9
$DIMCLRD
 70
   256
  9
$DIMCLRE
 70
   256
  9
$DIMCLRT
 70
   256
  9
$DIMTFAC
 40
1.0
  9
$DIMGAP
 40
0.9
  9
$DIMJUST
 70
     0
  9
$DIMSD1
 70
     0
  9
$DIMSD2
 70
     0
  9
$DIMTOLJ
 70
     1
  9
$DIMTZIN
 70
     0
  9
$DIMALTZ
 70
     0
  9
$DIMALTTZ
 70
     0
  9
$DIMUPT
 70
     0
  9
$DIMDEC
 70
     0
  9
$DIMTDEC
 70
     0
  9
$DIMALTU
 70
     8
  9
$DIMALTTD
 70
     4
  9
$DIMTXSTY
  7
Standard
  9
$DIMAUNIT
 70
     0
  9
$DIMADEC
 70
     0
  9
$DIMALTRND
 40
0.0
  9
$DIMAZIN
 70
     0
  9
$DIMDSEP
 70
    46
  9
$DIMATFIT
 70
     3
  9
$DIMFRAC
 70
     0
  9
$DIMLDRBLK
  1

  9
$DIMLUNIT
 70
     2
  9
$DIMLWD
 70
    -2
  9
$DIMLWE
 70
    -2
  9
$DIMTMOVE
 70
     2
  9
$DIMFXL
 40
2.0
  9
$DIMFXLON
 70
     0
  9
$DIMJOGANG
 40
1.570796326794896
  9
$DIMTFILL
 70
     0
  9
$DIMTFILLCLR
 70
     0
  9
$DIMARCSYM
 70
     0
  9
$DIMLTYPE
  6

  9
$DIMLTEX1
  6

  9
$DIMLTEX2
  6

  9
$LUNITS
 70
     2
  9
$LUPREC
 70
     4
  9
$SKETCHINC
 40
1.0
  9
$FILLETRAD
 40
0.0
  9
$AUNITS
 70
     0
  9
$AUPREC
 70
     0
  9
$MENU
  1
.
  9
$ELEVATION
 40
0.0
  9
$PELEVATION
 40
0.0
  9
$THICKNESS
 40
0.0
  9
$LIMCHECK
 70
     0
  9
$CHAMFERA
 40
0.0
  9
$CHAMFERB
 40
0.0
  9
$CHAMFERC
 40
0.0
  9
$CHAMFERD
 40
0.0
  9
$SKPOLY
 70
     0
  9
$TDCREATE
 40
2453960.715830440
  9
$TDUCREATE
 40
2453960.299163773
  9
$TDUPDATE
 40
2455343.869939016
  9
$TDUUPDATE
 40
2455343.453272350
  9
$TDINDWG
 40
0.5913847454
  9
$TDUSRTIMER
 40
0.5913847454
  9
$USRTIMER
 70
     1
  9
$ANGBASE
 50
0.0
  9
$ANGDIR
 70
     0
  9
$PDMODE
 70
     0
  9
$PDSIZE
 40
0.0
  9
$PLINEWID
 40
0.0
  9
$SPLFRAME
 70
     0
  9
$SPLINETYPE
 70
     6
  9
$SPLINESEGS
 70
     8
  9
$HANDSEED
  5
21C
  9
$SURFTAB1
 70
     6
  9
$SURFTAB2
 70
     6
  9
$SURFTYPE
 70
     6
  9
$SURFU
 70
     6
  9
$SURFV
 70
     6
  9
$UCSBASE
  2

  9
$UCSNAME
  2

  9
$UCSORG
 10
0.0
 20
0.0
 30
0.0
  9
$UCSXDIR
 10
1.0
 20
0.0
 30
0.0
  9
$UCSYDIR
 10
0.0
 20
1.0
 30
0.0
  9
$UCSORTHOREF
  2

  9
$UCSORTHOVIEW
 70
     0
  9
$UCSORGTOP
 10
0.0
 20
0.0
 30
0.0
  9
$UCSORGBOTTOM
 10
0.0
 20
0.0
 30
0.0
  9
$UCSORGLEFT
 10
0.0
 20
0.0
 30
0.0
  9
$UCSORGRIGHT
 10
0.0
 20
0.0
 30
0.0
  9
$UCSORGFRONT
 10
0.0
 20
0.0
 30
0.0
  9
$UCSORGBACK
 10
0.0
 20
0.0
 30
0.0
  9
$PUCSBASE
  2

  9
$PUCSNAME
  2

  9
$PUCSORG
 10
0.0
 20
0.0
 30
0.0
  9
$PUCSXDIR
 10
1.0
 20
0.0
 30
0.0
  9
$PUCSYDIR
 10
0.0
 20
1.0
 30
0.0
  9
$PUCSORTHOREF
  2

  9
$PUCSORTHOVIEW
 70
     0
  9
$PUCSORGTOP
 10
0.0
 20
0.0
 30
0.0
  9
$PUCSORGBOTTOM
 10
0.0
 20
0.0
 30
0.0
  9
$PUCSORGLEFT
 10
0.0
 20
0.0
 30
0.0
  9
$PUCSORGRIGHT
 10
0.0
 20
0.0
 30
0.0
  9
$PUCSORGFRONT
 10
0.0
 20
0.0
 30
0.0
  9
$PUCSORGBACK
 10
0.0
 20
0.0
 30
0.0
  9
$USERI1
 70
     0
  9
$USERI2
 70
     0
  9
$USERI3
 70
     0
  9
$USERI4
 70
     0
  9
$USERI5
 70
     0
  9
$USERR1
 40
0.0
  9
$USERR2
 40
0.0
  9
$USERR3
 40
0.0
  9
$USERR4
 40
0.0
  9
$USERR5
 40
0.0
  9
$WORLDVIEW
 70
     1
  9
$SHADEDGE
 70
     3
  9
$SHADEDIF
 70
    70
  9
$TILEMODE
 70
     1
  9
$MAXACTVP
 70
    64
  9
$PINSBASE
 10
0.0
 20
0.0
 30
0.0
  9
$PLIMCHECK
 70
     0
  9
$PEXTMIN
 10
25.69999999999999
 20
19.5
 30
0.0
  9
$PEXTMAX
 10
231.3
 20
175.5
 30
0.0
  9
$PLIMMIN
 10
-20.0
 20
-7.5
  9
$PLIMMAX
 10
277.0
 20
202.5
  9
$UNITMODE
 70
     0
  9
$VISRETAIN
 70
     1
  9
$PLINEGEN
 70
     0
  9
$PSLTSCALE
 70
     1
  9
$TREEDEPTH
 70
  3020
  9
$CMLSTYLE
  2
Standard
  9
$CMLJUST
 70
     0
  9
$CMLSCALE
 40
20.0
  9
$PROXYGRAPHICS
 70
     1
  9
$MEASUREMENT
 70
     1
  9
$CELWEIGHT
370
    -1
  9
$ENDCAPS
280
     0
  9
$JOINSTYLE
280
     0
  9
$LWDISPLAY
290
     0
  9
$INSUNITS
 70
     4
  9
$HYPERLINKBASE
  1

  9
$STYLESHEET
  1
LCG Normal.ctb
  9
$XEDIT
290
     1
  9
$CEPSNTYPE
380
     0
  9
$PSTYLEMODE
290
     1
  9
$FINGERPRINTGUID
  2
{C9D0D3A1-9584-4E0C-90A7-F55D84579A6E}
  9
$VERSIONGUID
  2
{4F441EF8-27BD-4AB1-AD72-41426BF91766}
  9
$EXTNAMES
290
     1
  9
$PSVPSCALE
 40
0.0
  9
$OLESTARTUP
290
     0
  9
$SORTENTS
280
   127
  9
$INDEXCTL
280
     0
  9
$HIDETEXT
280
     1
  9
$XCLIPFRAME
290
     0
  9
$HALOGAP
280
     0
  9
$OBSCOLOR
 70
   257
  9
$OBSLTYPE
280
     0
  9
$INTERSECTIONDISPLAY
280
     0
  9
$INTERSECTIONCOLOR
 70
   257
  9
$DIMASSOC
280
     2
  9
$PROJECTNAME
  1

  9
$CAMERADISPLAY
290
     0
  9
$LENSLENGTH
 40
50.0
  9
$CAMERAHEIGHT
 40
0.0
  9
$STEPSPERSEC
 40
2.0
  9
$STEPSIZE
 40
6.0
  9
$3DDWFPREC
 40
2.0
  9
$PSOLWIDTH
 40
0.25
  9
$PSOLHEIGHT
 40
4.0
  9
$LOFTANG1
 40
1.570796326794896
  9
$LOFTANG2
 40
1.570796326794896
  9
$LOFTMAG1
 40
0.0
  9
$LOFTMAG2
 40
0.0
  9
$LOFTPARAM
 70
     7
  9
$LOFTNORMALS
280
     1
  9
$LATITUDE
 40
37.795
  9
$LONGITUDE
 40
-122.394
  9
$NORTHDIRECTION
 40
0.0
  9
$TIMEZONE
 70
 -8000
  9
$LIGHTGLYPHDISPLAY
280
     1
  9
$TILEMODELIGHTSYNCH
280
     1
  9
$CMATERIAL
347
39
  9
$SOLIDHIST
280
     1
  9
$SHOWHIST
280
     1
  9
$DWFFRAME
280
     2
  9
$DGNFRAME
280
     0
  9
$REALWORLDSCALE
290
     1
  9
$INTERFERECOLOR
 62
     1
  9
$INTERFEREOBJVS
345
41
  9
$INTERFEREVPVS
346
42
  9
$CSHADOW
280
     0
  9
$SHADOWPLANELOCATION
 40
0.0
  0
ENDSEC
  0
SECTION
  2
CLASSES
  0
CLASS
  1
ACDBDICTIONARYWDFLT
  2
AcDbDictionaryWithDefault
  3
ObjectDBX Classes
 90
        0
 91
        1
280
     0
281
     0
  0
CLASS
  1
DICTIONARYVAR
  2
AcDbDictionaryVar
  3
ObjectDBX Classes
 90
        0
 91
        1
280
     0
281
     0
  0
CLASS
  1
TABLESTYLE
  2
AcDbTableStyle
  3
ObjectDBX Classes
 90
     4095
 91
        1
280
     0
281
     0
  0
CLASS
  1
PLOTSETTINGS
  2
AcDbPlotSettings
  3
ObjectDBX Classes
 90
        0
 91
        0
280
     0
281
     0
  0
CLASS
  1
SORTENTSTABLE
  2
AcDbSortentsTable
  3
ObjectDBX Classes
 90
        0
 91
        1
280
     0
281
     0
  0
CLASS
  1
DIMASSOC
  2
AcDbDimAssoc
  3
"AcDbDimAssoc|Product Desc:     AcDim ARX App For Dimension|Company:          Autodesk, Inc.|WEB Address:      www.autodesk.com"
 90
        0
 91
        0
280
     0
281
     0
  0
CLASS
  1
SPATIAL_FILTER
  2
AcDbSpatialFilter
  3
ObjectDBX Classes
 90
        0
 91
        0
280
     0
281
     0
  0
CLASS
  1
MATERIAL
  2
AcDbMaterial
  3
ObjectDBX Classes
 90
     1024
 91
        3
280
     0
281
     0
  0
CLASS
  1
VISUALSTYLE
  2
AcDbVisualStyle
  3
ObjectDBX Classes
 90
     4095
 91
       16
280
     0
281
     0
  0
CLASS
  1
SOLID_BACKGROUND
  2
AcDbSolidBackground
  3
SCENEOE
 90
     4095
 91
        0
280
     0
281
     0
  0
CLASS
  1
NPOCOLLECTION
  2
AcDbImpNonPersistentObjectsCollection
  3
ObjectDBX Classes
 90
     1153
 91
        0
280
     0
281
     0
  0
ENDSEC
  0
SECTION
  2
TABLES
  0
TABLE
  2
VPORT
  5
25
102
{ACAD_XDICTIONARY
360
29
102
}
330
0
100
AcDbSymbolTable
 70
     1
  0
VPORT
  5
26
330
25
100
AcDbSymbolTableRecord
100
AcDbViewportTableRecord
  2
*Active
 70
     0
 10
0.0
 20
0.0
 11
1.0
 21
1.0
 12
-10346.61645770418
 22
-23174.28094056221
 13
0.0
 23
0.0
 14
10.0
 24
10.0
 15
10.0
 25
10.0
 16
0.0
 26
0.0
 36
1.0
 17
0.0
 27
0.0
 37
0.0
 40
1490.270830347384
 41
2.494824016563146
 42
50.0
 43
0.0
 44
0.0
 50
0.0
 51
0.0
 71
     0
 72
  1000
 73
     1
 74
     3
 75
     0
 76
     0
 77
     0
 78
     0
281
     0
 65
     1
110
0.0
120
0.0
130
0.0
111
1.0
121
0.0
131
0.0
112
0.0
122
1.0
132
0.0
 79
     0
146
0.0
348
27
 60
     3
 61
     5
292
     1
282
     1
141
0.0
142
0.0
 63
   250
421
  3355443
  0
ENDTAB
  0
TABLE
  2
LTYPE
  5
20
330
0
100
AcDbSymbolTable
 70
     3
  0
LTYPE
  5
21
330
20
100
AcDbSymbolTableRecord
100
AcDbLinetypeTableRecord
  2
ByBlock
 70
     0
  3

 72
    65
 73
     0
 40
0.0
  0
LTYPE
  5
22
330
20
100
AcDbSymbolTableRecord
100
AcDbLinetypeTableRecord
  2
ByLayer
 70
     0
  3

 72
    65
 73
     0
 40
0.0
  0
LTYPE
  5
C
330
20
100
AcDbSymbolTableRecord
100
AcDbLinetypeTableRecord
  2
Continuous
 70
     0
  3
Solid line
 72
    65
 73
     0
 40
0.0
  0
LTYPE
  5
4F
330
20
100
AcDbSymbolTableRecord
100
AcDbLinetypeTableRecord
  2
CENTER
 70
     0
  3
Center ____ _ ____ _ ____ _ ____ _ ____ _ ____
 72
    65
 73
     4
 40
2.0
 49
1.25
 74
     0
 49
-0.25
 74
     0
 49
0.25
 74
     0
 49
-0.25
 74
     0
  0
LTYPE
  5
48
330
20
100
AcDbSymbolTableRecord
100
AcDbLinetypeTableRecord
  2
HIDDEN
 70
     0
  3
Hidden __ __ __ __ __ __ __ __ __ __ __ __ __ _
 72
    65
 73
     2
 40
0.375
 49
0.25
 74
     0
 49
-0.125
 74
     0
  0
ENDTAB
  0
TABLE
  2
LAYER
  5
17
102
{ACAD_XDICTIONARY
360
18
102
}
330
0
100
AcDbSymbolTable
 70
     5
  0
LAYER
  5
6
330
17
100
AcDbSymbolTableRecord
100
AcDbLayerTableRecord
  2
0
 70
     0
 62
     7
  6
Continuous
370
    -3
390
7
347
A
  0
LAYER
  5
47
330
17
100
AcDbSymbolTableRecord
100
AcDbLayerTableRecord
  2
Access .1
 70
     0
 62
     1
  6
Continuous
370
    -3
390
7
347
A
1001
AcAecLayerStandard
1000

1000

  0
LAYER
  5
45
330
17
100
AcDbSymbolTableRecord
100
AcDbLayerTableRecord
  2
Access .2
 70
     0
 62
     2
  6
Continuous
370
    -3
390
7
347
A
1001
AcAecLayerStandard
1000

1000

  0
LAYER
  5
3D
330
17
100
AcDbSymbolTableRecord
100
AcDbLayerTableRecord
  2
Access .3
 70
     0
 62
     3
  6
Continuous
370
    -3
390
7
347
A
1001
AcAecLayerStandard
1000

1000

  0
LAYER
  5
4E
330
17
100
AcDbSymbolTableRecord
100
AcDbLayerTableRecord
  2
Access Grid
 70
     0
 62
     8
  6
CENTER
370
    -3
390
7
347
A
1001
AcAecLayerStandard
1000

1000

  0
ENDTAB
  0
TABLE
  2
STYLE
  5
1D
330
0
100
AcDbSymbolTable
 70
     1
  0
STYLE
  5
1E
330
1D
100
AcDbSymbolTableRecord
100
AcDbTextStyleTableRecord
  2
Standard
 70
     0
 40
0.0
 41
1.0
 50
0.0
 71
     0
 42
536.1425458167722
  3
ARIALN.TTF
  4

1001
ACAD
1000
Arial Narrow
1071
       34
  0
ENDTAB
  0
TABLE
  2
VIEW
  5
23
330
0
100
AcDbSymbolTable
 70
     0
  0
ENDTAB
  0
TABLE
  2
UCS
  5
24
330
0
100
AcDbSymbolTable
 70
     0
  0
ENDTAB
  0
TABLE
  2
APPID
  5
2A
330
0
100
AcDbSymbolTable
 70
     5
  0
APPID
  5
1C
330
2A
100
AcDbSymbolTableRecord
100
AcDbRegAppTableRecord
  2
ACAD
 70
     0
  0
APPID
  5
10
330
2A
100
AcDbSymbolTableRecord
100
AcDbRegAppTableRecord
  2
ACAD_PSEXT
 70
     0
  0
APPID
  5
3E
330
2A
100
AcDbSymbolTableRecord
100
AcDbRegAppTableRecord
  2
AcAecLayerStandard
 70
     0
  0
APPID
  5
34
330
2A
100
AcDbSymbolTableRecord
100
AcDbRegAppTableRecord
  2
ACAD_DSTYLE_DIMJOGGED_JOGANGLE_SYMBOL
 70
     0
  0
APPID
  5
1AC
330
2A
100
AcDbSymbolTableRecord
100
AcDbRegAppTableRecord
  2
ACAD_DSTYLE_DIMEXT_LENGTH
 70
     0
  0
ENDTAB
  0
TABLE
  2
DIMSTYLE
  5
2B
330
0
100
AcDbSymbolTable
 70
     1
100
AcDbDimStyleTable
 71
     1
340
2C
  0
DIMSTYLE
105
2C
330
2B
100
AcDbSymbolTableRecord
100
AcDbDimStyleTableRecord
  2
Access
 70
     0
 40
10.0
 41
2.5
 42
1.0
 43
1.0
 44
2.0
 46
2.0
 49
2.0
 50
90.0
 73
     0
 74
     0
 77
     1
 78
     9
140
1.8
141
2.5
143
0.0394
147
0.9
171
     4
173
     1
176
   256
177
   256
178
   256
271
     0
272
     0
273
     8
274
     4
279
     2
340
1E
343
2D
344
2D
1001
ACAD_DSTYLE_DIMJOGGED_JOGANGLE_SYMBOL
1070
   384
1040
1.570796326794896
  0
ENDTAB
  0
TABLE
  2
BLOCK_RECORD
  5
1
330
0
100
AcDbSymbolTable
 70
     1
  0
BLOCK_RECORD
  5
2
102
{ACAD_XDICTIONARY
360
3
102
}
330
1
100
AcDbSymbolTableRecord
100
AcDbBlockTableRecord
  2
*Model_Space
340
E
 70
     0
280
     1
281
     0
  0
BLOCK_RECORD
  5
11
330
1
100
AcDbSymbolTableRecord
100
AcDbBlockTableRecord
  2
*Paper_Space
340
14
 70
     0
280
     1
281
     0
  0
BLOCK_RECORD
  5
2D
330
1
100
AcDbSymbolTableRecord
100
AcDbBlockTableRecord
  2
_ARCHTICK
340
0
 70
     0
280
     1
281
     0
  0
ENDTAB
  0
ENDSEC
  0
SECTION
  2
BLOCKS
  0
BLOCK
  5
5
330
2
100
AcDbEntity
  8
0
100
AcDbBlockBegin
  2
*Model_Space
 70
     0
 10
0.0
 20
0.0
 30
0.0
  3
*Model_Space
  1

  0
ENDBLK
  5
D
330
2
100
AcDbEntity
  8
0
100
AcDbBlockEnd
  0
BLOCK
  5
12
330
11
100
AcDbEntity
 67
     1
  8
0
100
AcDbBlockBegin
  2
*Paper_Space
 70
     0
 10
0.0
 20
0.0
 30
0.0
  3
*Paper_Space
  1

  0
ENDBLK
  5
13
330
11
100
AcDbEntity
 67
     1
  8
0
100
AcDbBlockEnd
  0
BLOCK
  5
2E
330
2D
100
AcDbEntity
  8
0
100
AcDbBlockBegin
  2
_ARCHTICK
 70
     0
 10
0.0
 20
0.0
 30
0.0
  3
_ARCHTICK
  1

  0
POLYLINE
  5
2F
330
2D
100
AcDbEntity
  8
0
  6
ByBlock
 62
     0
100
AcDb2dPolyline
 66
     1
 10
0.0
 20
0.0
 30
0.0
 40
0.15
 41
0.15
  0
VERTEX
  5
30
330
2F
100
AcDbEntity
  8
0
  6
ByBlock
 62
     0
100
AcDbVertex
100
AcDb2dVertex
 10
-0.5
 20
-0.5
 30
0.0
  0
VERTEX
  5
31
330
2F
100
AcDbEntity
  8
0
  6
ByBlock
 62
     0
100
AcDbVertex
100
AcDb2dVertex
 10
0.5
 20
0.5
 30
0.0
  0
SEQEND
  5
32
330
2F
100
AcDbEntity
  8
0
  6
ByBlock
 62
     0
  0
ENDBLK
  5
33
330
2D
100
AcDbEntity
  8
0
100
AcDbBlockEnd
  0
ENDSEC
  0
SECTION
  2
ENTITIES
  0
LINE
  5
43
330
2
100
AcDbEntity
  8
Access .3
100
AcDbLine
 10
-10913.08211020032
 20
-23773.56534708897
 30
0.0
 11
-9779.932469436939
 21
-23773.56534708896
 31
0.0
  0
LINE
  5
44
330
2
100
AcDbEntity
  8
Access .2
100
AcDbLine
 10
-10831.08211020033
 20
-22973.56534708897
 30
0.0
 11
-10663.08211020032
 21
-22973.56534708897
 31
0.0
  0
LINE
  5
46
330
2
100
AcDbEntity
  8
Access .1
  6
HIDDEN
100
AcDbLine
 10
-10663.08211020032
 20
-22973.56534708897
 30
0.0
 11
-10263.08211020032
 21
-22973.56534708897
 31
0.0
  0
LINE
  5
49
330
2
100
AcDbEntity
  8
Access .2
100
AcDbLine
 10
-10263.08211020033
 20
-22973.56534708897
 30
0.0
 11
-9963.082110200325
 21
-22973.56534708897
 31
0.0
  0
LINE
  5
4A
330
2
100
AcDbEntity
  8
Access .2
100
AcDbLine
 10
-10837.58211020032
 20
-23005.56534708897
 30
0.0
 11
-10663.08211020032
 21
-23005.56534708897
 31
0.0
  0
LINE
  5
4B
330
2
100
AcDbEntity
  8
Access .1
  6
HIDDEN
100
AcDbLine
 10
-10663.08211020032
 20
-23005.56534708896
 30
0.0
 11
-10263.08211020032
 21
-23005.56534708897
 31
0.0
  0
LINE
  5
4C
330
2
100
AcDbEntity
  8
Access .2
100
AcDbLine
 10
-10263.08211020032
 20
-23005.56534708897
 30
0.0
 11
-9963.082110200325
 21
-23005.56534708897
 31
0.0
  0
LINE
  5
4D
330
2
100
AcDbEntity
  8
Access Grid
100
AcDbLine
 10
-10463.08211020032
 20
-22599.77887191378
 30
0.0
 11
-10463.08211020032
 21
-23909.86542856597
 31
0.0
  0
LINE
  5
50
330
2
100
AcDbEntity
  8
Access .2
100
AcDbLine
 10
-10263.08211020032
 20
-22948.56534708897
 30
0.0
 11
-10263.08211020032
 21
-23098.56534708897
 31
0.0
  0
ARC
  5
51
330
2
100
AcDbEntity
  8
Access .2
100
AcDbCircle
 10
-10288.08211020032
 20
-22948.56534708897
 30
0.0
 40
25.0
100
AcDbArc
 50
0.0000000000001018
 51
90.0
  0
LINE
  5
52
330
2
100
AcDbEntity
  8
Access .2
100
AcDbLine
 10
-10663.08211020032
 20
-22948.56534708897
 30
0.0
 11
-10663.08211020032
 21
-23098.56534708897
 31
0.0
  0
ARC
  5
53
330
2
100
AcDbEntity
  8
Access .2
100
AcDbCircle
 10
-10638.08211020032
 20
-23098.56534708897
 30
0.0
 40
25.0
100
AcDbArc
 50
180.0
 51
269.9999999999995
  0
LINE
  5
54
330
2
100
AcDbEntity
  8
Access .3
100
AcDbLine
 10
-10913.08211020032
 20
-23773.56534708897
 30
0.0
 11
-10913.08211020032
 21
-22439.09270273348
 31
0.0
  0
LINE
  5
55
330
2
100
AcDbEntity
  8
Access .2
100
AcDbLine
 10
-10905.08211020032
 20
-23097.06534708897
 30
0.0
 11
-10905.08211020033
 21
-23022.06534708897
 31
0.0
  0
LINE
  5
56
330
2
100
AcDbEntity
  8
Access .2
100
AcDbLine
 10
-10905.08211020032
 20
-22682.92175354952
 30
0.0
 11
-10905.08211020032
 21
-22607.92175354952
 31
0.0
  0
LINE
  5
57
330
2
100
AcDbEntity
  8
Access .3
100
AcDbLine
 10
-10342.08211020032
 20
-23773.56534708897
 30
0.0
 11
-9779.932469436937
 21
-23773.56534708897
 31
0.0
  0
LINE
  5
58
330
2
100
AcDbEntity
  8
Access .2
100
AcDbLine
 10
-10638.08211020032
 20
-22923.56534708897
 30
0.0
 11
-10288.08211020032
 21
-22923.56534708897
 31
0.0
  0
ARC
  5
59
330
2
100
AcDbEntity
  8
Access .2
100
AcDbCircle
 10
-10638.08211020032
 20
-22948.56534708897
 30
0.0
 40
25.0
100
AcDbArc
 50
89.99999999999948
 51
180.0
  0
LINE
  5
5A
330
2
100
AcDbEntity
  8
Access .2
100
AcDbLine
 10
-10638.08211020032
 20
-23123.56534708897
 30
0.0
 11
-10288.08211020032
 21
-23123.56534708897
 31
0.0
  0
ARC
  5
5B
330
2
100
AcDbEntity
  8
Access .2
100
AcDbCircle
 10
-10288.08211020032
 20
-23098.56534708897
 30
0.0
 40
25.0
100
AcDbArc
 50
269.9999999999994
 51
0.0
  0
ARC
  5
5C
330
2
100
AcDbEntity
  8
Access .2
100
AcDbCircle
 10
-9963.082110200325
 20
-22989.56534708897
 30
0.0
 40
16.0
100
AcDbArc
 50
270.0
 51
90.0
  0
ARC
  5
5D
330
2
100
AcDbEntity
  8
Access .1
  6
HIDDEN
100
AcDbCircle
 10
-9963.082110200325
 20
-22989.56534708897
 30
0.0
 40
16.0
100
AcDbArc
 50
90.0
 51
270.0
  0
ARC
  5
5E
330
2
100
AcDbEntity
  8
Access .2
100
AcDbCircle
 10
-9963.082110200325
 20
-22989.56534708897
 30
0.0
 40
37.5
100
AcDbArc
 50
205.2562036615409
 51
154.743796338459
  0
LINE
  5
5F
330
2
100
AcDbEntity
  8
Access .2
100
AcDbLine
 10
-10905.08211020033
 20
-22682.92175354952
 30
0.0
 11
-10913.08211020032
 21
-22682.92175354952
 31
0.0
  0
LINE
  5
60
330
2
100
AcDbEntity
  8
Access .2
100
AcDbLine
 10
-10881.08211020032
 20
-22661.42175354952
 30
0.0
 11
-10905.08211020033
 21
-22661.42175354952
 31
0.0
  0
LINE
  5
61
330
2
100
AcDbEntity
  8
Access .2
100
AcDbLine
 10
-10905.08211020033
 20
-22607.92175354952
 30
0.0
 11
-10913.08211020032
 21
-22607.92175354952
 31
0.0
  0
LINE
  5
62
330
2
100
AcDbEntity
  8
Access .2
100
AcDbLine
 10
-10881.08211020032
 20
-22629.42175354952
 30
0.0
 11
-10905.08211020033
 21
-22629.42175354952
 31
0.0
  0
ARC
  5
63
330
2
100
AcDbEntity
  8
Access .2
100
AcDbCircle
 10
-10881.08211020032
 20
-22679.42175354952
 30
0.0
 40
50.0
100
AcDbArc
 50
0.0
 51
90.0
  0
ARC
  5
64
330
2
100
AcDbEntity
  8
Access .2
100
AcDbCircle
 10
-10881.08211020032
 20
-22679.42175354952
 30
0.0
 40
18.0
100
AcDbArc
 50
0.0
 51
90.0
  0
LINE
  5
65
330
2
100
AcDbEntity
  8
Access .2
100
AcDbLine
 10
-10831.08211020033
 20
-22989.56534708897
 30
0.0
 11
-10831.08211020032
 21
-22679.42175354952
 31
0.0
  0
LINE
  5
66
330
2
100
AcDbEntity
  8
Access .2
100
AcDbLine
 10
-10863.08211020032
 20
-22989.56534708897
 30
0.0
 11
-10863.08211020032
 21
-22679.42175354952
 31
0.0
  0
ARC
  5
67
330
2
100
AcDbEntity
  8
Access .2
100
AcDbCircle
 10
-10847.08211020032
 20
-22989.56534708897
 30
0.0
 40
16.0
100
AcDbArc
 50
180.0
 51
0.0
  0
LINE
  5
68
330
2
100
AcDbEntity
  8
Access .2
100
AcDbLine
 10
-10913.08211020032
 20
-23097.06534708897
 30
0.0
 11
-10905.08211020032
 21
-23097.06534708897
 31
0.0
  0
LINE
  5
69
330
2
100
AcDbEntity
  8
Access .2
100
AcDbLine
 10
-10913.08211020032
 20
-23022.06534708897
 30
0.0
 11
-10905.08211020032
 21
-23022.06534708897
 31
0.0
  0
LWPOLYLINE
  5
6A
330
2
100
AcDbEntity
  8
Access .2
100
AcDbPolyline
 90
        4
 70
     0
 43
0.0
 10
-10856.58211020032
 20
-23002.43974027855
 10
-10856.58211020032
 20
-23039.56534708897
 42
-0.4142135623730951
 10
-10867.08211020032
 20
-23050.06534708897
 10
-10905.08211020032
 20
-23050.06534708897
  0
LWPOLYLINE
  5
6B
330
2
100
AcDbEntity
  8
Access .2
100
AcDbPolyline
 90
        4
 70
     0
 43
0.0
 10
-10837.58211020032
 20
-23002.43974027855
 10
-10837.58211020032
 20
-23039.56534708897
 42
-0.4142135623730951
 10
-10867.08211020032
 20
-23069.06534708897
 10
-10905.08211020032
 20
-23069.06534708897
  0
ARC
  5
6C
330
2
100
AcDbEntity
  8
Access .1
  6
HIDDEN
100
AcDbCircle
 10
-10847.08211020032
 20
-22989.56534708897
 30
0.0
 40
16.0
100
AcDbArc
 50
0.0
 51
180.0
  0
LINE
  5
6D
330
2
100
AcDbEntity
  8
Access .1
 48
0.4662490844726563
100
AcDbLine
 10
-10402.36110189954
 20
-23285.11359537998
 30
0.0
 11
-10383.71113852063
 21
-23285.11359537998
 31
0.0
  0
LINE
  5
6E
330
2
100
AcDbEntity
  8
Access .1
100
AcDbLine
 10
-10396.7459285597
 20
-23313.10190714756
 30
0.0
 11
-10362.81154135267
 21
-23313.10221232334
 31
0.0
  0
LINE
  5
6F
330
2
100
AcDbEntity
  8
Access .1
 48
0.4731277465820313
100
AcDbLine
 10
-10402.7254207472
 20
-23329.66361369053
 30
0.0
 11
-10383.80031088392
 21
-23329.66361369053
 31
0.0
  0
ARC
  5
70
330
2
100
AcDbEntity
  8
Access .2
100
AcDbCircle
 10
-10388.52803305188
 20
-23344.52405680576
 30
0.0
 40
47.85986328125
100
AcDbArc
 50
83.18884914842039
 51
88.13878275066388
  0
LINE
  5
71
330
2
100
AcDbEntity
  8
Access .2
100
AcDbLine
 10
-10463.08211020032
 20
-23773.56534708897
 30
0.0
 11
-10362.48353842298
 21
-23773.56534708897
 31
0.0
  0
LINE
  5
72
330
2
100
AcDbEntity
  8
Access .2
100
AcDbLine
 10
-10463.08211020032
 20
-23353.56534708897
 30
0.0
 11
-10283.56569174329
 21
-23353.56534708897
 31
0.0
  0
LINE
  5
73
330
2
100
AcDbEntity
  8
Access .2
100
AcDbLine
 10
-10463.08211020032
 20
-23343.56534708897
 30
0.0
 11
-10291.45704916517
 21
-23343.56534708897
 31
0.0
  0
LINE
  5
74
330
2
100
AcDbEntity
  8
Access .2
100
AcDbLine
 10
-10463.08211020032
 20
-23353.56607951084
 30
0.0
 11
-10371.87153891126
 21
-23353.56534708897
 31
0.0
  0
LWPOLYLINE
  5
75
330
2
100
AcDbEntity
  8
Access .2
100
AcDbPolyline
 90
       25
 70
     0
 43
0.0
 10
-10635.39662436048
 20
-23448.78165568271
 10
-10634.40181234876
 20
-23460.73523844639
 10
-10633.31141928235
 20
-23472.68036784092
 10
-10632.12507895032
 20
-23484.62348307529
 10
-10630.84382895032
 20
-23496.55677164951
 10
-10629.46773031751
 20
-23508.48392619053
 10
-10627.99800375501
 20
-23520.39988078038
 10
-10626.4349544386
 20
-23532.30599345127
 10
-10624.77974203626
 20
-23544.19960917393
 10
-10622.64229086439
 20
-23558.65667094151
 10
-10620.3714778761
 20
-23573.0930570499
 10
-10617.96937826673
 20
-23587.50737894932
 10
-10615.43818930188
 20
-23601.89846171299
 10
-10612.78023031751
 20
-23616.26543558994
 10
-10609.9978816847
 20
-23630.60746134678
 10
-10607.09370688001
 20
-23644.92406596104
 10
-10604.07020834485
 20
-23659.21498240391
 10
-10600.96492270032
 20
-23673.32456339756
 10
-10597.74794271985
 20
-23687.40926493565
 10
-10594.4217098097
 20
-23701.46975077549
 10
-10590.98860434095
 20
-23715.50654734531
 10
-10587.4510066847
 20
-23729.52089060703
 10
-10583.81111410657
 20
-23743.51390208164
 10
-10580.07081869642
 20
-23757.48710764805
 10
-10576.2342098097
 20
-23771.43460978428
  0
LWPOLYLINE
  5
76
330
2
100
AcDbEntity
  8
Access .2
100
AcDbPolyline
 90
        4
 70
     0
 43
0.0
 10
-10602.56251791517
 20
-23695.19038523594
 10
-10599.45503500501
 20
-23721.32521952549
 10
-10597.34590414564
 20
-23738.74172343174
 10
-10593.08211020032
 20
-23773.56534708897
  0
LINE
  5
77
330
2
100
AcDbEntity
  8
Access .2
100
AcDbLine
 10
-10563.68068197767
 20
-23773.56534708897
 30
0.0
 11
-10463.08211020032
 21
-23773.56534708897
 31
0.0
  0
LINE
  5
78
330
2
100
AcDbEntity
  8
Access .2
 48
0.3614898681640625
100
AcDbLine
 10
-10591.38032797376
 20
-23773.56534708897
 30
0.0
 11
-10576.9207332472
 21
-23773.56534708897
 31
0.0
  0
LINE
  5
79
330
2
100
AcDbEntity
  8
Access .2
 48
0.0401809692382813
100
AcDbLine
 10
-10593.08211020032
 20
-23773.56534708897
 30
0.0
 11
-10591.47487143079
 21
-23773.56534708897
 31
0.0
  0
LINE
  5
7A
330
2
100
AcDbEntity
  8
Access .2
 48
0.330999755859375
100
AcDbLine
 10
-10576.92067221204
 20
-23773.56534708897
 30
0.0
 11
-10563.68068197767
 21
-23773.56534708897
 31
0.0
  0
LWPOLYLINE
  5
7B
330
2
100
AcDbEntity
  8
Access .2
100
AcDbPolyline
 90
        3
 70
     0
 43
0.0
 10
-10551.4304988722
 20
-23298.52439249912
 10
-10556.54805258313
 20
-23299.01450480381
 10
-10561.2039363722
 20
-23299.58576334873
  0
LINE
  5
7C
330
2
100
AcDbEntity
  8
Access .1
100
AcDbLine
 10
-10563.35267904798
 20
-23313.10221232334
 30
0.0
 11
-10529.41829184095
 21
-23313.10190714756
 31
0.0
  0
LINE
  5
7D
330
2
100
AcDbEntity
  8
Access .1
 48
0.3496597290039063
100
AcDbLine
 10
-10563.05433920423
 20
-23339.66361369053
 30
0.0
 11
-10549.06795004407
 21
-23339.66361369053
 31
0.0
  0
LINE
  5
7E
330
2
100
AcDbEntity
  8
Access .1
100
AcDbLine
 10
-10579.03535727064
 20
-23329.66361369053
 30
0.0
 11
-10542.36781576673
 21
-23329.66361369053
 31
0.0
  0
LINE
  5
7F
330
2
100
AcDbEntity
  8
Access .2
100
AcDbLine
 10
-10642.59852865735
 20
-23353.56534708897
 30
0.0
 11
-10463.08211020032
 21
-23353.56534708897
 31
0.0
  0
LINE
  5
80
330
2
100
AcDbEntity
  8
Access .2
100
AcDbLine
 10
-10634.70717123548
 20
-23343.56534708897
 30
0.0
 11
-10463.08211020032
 21
-23343.56534708897
 31
0.0
  0
LINE
  5
81
330
2
100
AcDbEntity
  8
Access .2
100
AcDbLine
 10
-10642.59852865735
 20
-23353.56534708897
 30
0.0
 11
-10554.29274252454
 21
-23353.56534708897
 31
0.0
  0
LWPOLYLINE
  5
82
330
2
100
AcDbEntity
  8
Access .2
100
AcDbPolyline
 90
        7
 70
     0
 43
0.0
 10
-10602.33442953626
 20
-23696.48646677891
 10
-10604.23115805188
 20
-23682.2733091251
 10
-10606.15071371595
 20
-23667.47589243809
 10
-10607.72230795423
 20
-23655.01469553867
 10
-10609.04738119642
 20
-23644.19112528721
 10
-10610.33455160657
 20
-23633.36243571201
 10
-10611.58137777845
 20
-23622.52907694736
  0
ARC
  5
83
330
2
100
AcDbEntity
  8
Access .2
100
AcDbCircle
 10
-11364.77192953626
 20
-23784.41924418369
 30
0.0
 40
767.414306640625
100
AcDbArc
 50
6.677001452671704
 51
7.031429525506304
  0
ARC
  5
84
330
2
100
AcDbEntity
  8
Access .2
100
AcDbCircle
 10
-8886.734087739387
 20
-23243.78727091709
 30
0.0
 40
1759.29296875
100
AcDbArc
 50
183.5775252000234
 51
184.9239739655247
  0
ARC
  5
85
330
2
100
AcDbEntity
  8
Access .2
100
AcDbCircle
 10
-10634.70717123548
 20
-23351.56534708897
 30
0.0
 40
7.999998092651367
100
AcDbArc
 50
89.99998201384908
 51
183.5226066400357
  0
LINE
  5
86
330
2
100
AcDbEntity
  8
Access .2
 48
0.0377838120977748
100
AcDbLine
 10
-10642.59852865735
 20
-23353.56534708897
 30
0.0
 11
-10642.69209555188
 21
-23352.05689371983
 31
0.0
  0
LWPOLYLINE
  5
87
330
2
100
AcDbEntity
  8
Access .2
100
AcDbPolyline
 90
        4
 70
     0
 43
0.0
 10
-10561.20411947767
 20
-23299.58579386631
 10
-10566.50538900892
 20
-23300.35904826084
 10
-10573.2137019972
 20
-23301.45786417881
 10
-10582.84297445813
 20
-23303.08091105381
  0
LINE
  5
88
330
2
100
AcDbEntity
  8
Access .1
100
AcDbLine
 10
-10602.61293295423
 20
-23343.56534708897
 30
0.0
 11
-10577.5169856886
 21
-23343.56534708897
 31
0.0
  0
LWPOLYLINE
  5
89
330
2
100
AcDbEntity
  8
Access .2
100
AcDbPolyline
 90
        3
 70
     0
 43
0.0
 10
-10593.54878500501
 20
-23304.87079752842
 10
-10601.82033041517
 20
-23306.32727946202
 10
-10606.89912680188
 20
-23307.29450358311
  0
LINE
  5
8A
330
2
100
AcDbEntity
  8
Access .1
100
AcDbLine
 10
-10601.82338217298
 20
-23313.10230387608
 30
0.0
 11
-10563.35322836438
 21
-23313.10221232334
 31
0.0
  0
LINE
  5
8B
330
2
100
AcDbEntity
  8
Access .1
 48
0.3631759643554688
100
AcDbLine
 10
-10603.12959555189
 20
-23339.66361369053
 30
0.0
 11
-10588.60255697767
 21
-23339.66361369053
 31
0.0
  0
LINE
  5
8C
330
2
100
AcDbEntity
  8
Access .2
100
AcDbLine
 10
-10623.76411703626
 20
-23329.66361369053
 30
0.0
 11
-10582.11012533704
 21
-23329.66361369053
 31
0.0
  0
LWPOLYLINE
  5
8D
330
2
100
AcDbEntity
  8
Access .2
100
AcDbPolyline
 90
        5
 70
     0
 43
0.0
 10
-10635.39900473157
 20
-23448.75202311436
 10
-10637.05885580579
 20
-23427.12467326084
 10
-10638.54298666517
 20
-23407.25373209873
 10
-10639.26094320813
 20
-23398.06427897373
 10
-10639.5345638136
 20
-23394.79425944248
  0
LINE
  5
8E
330
2
100
AcDbEntity
  8
Access .2
 48
0.0007432005424669
100
AcDbLine
 10
-10635.39662436048
 20
-23448.78165568271
 30
0.0
 11
-10635.39900473157
 21
-23448.75202311436
 31
0.0
  0
LWPOLYLINE
  5
8F
330
2
100
AcDbEntity
  8
Access .2
100
AcDbPolyline
 90
        7
 70
     0
 43
0.0
 10
-10614.45631674329
 20
-23308.8906339542
 10
-10617.58211020032
 20
-23309.65778483311
 10
-10620.79939535657
 20
-23310.57062662998
 10
-10623.23683432142
 20
-23311.36219157139
 10
-10625.62318686048
 20
-23312.25379313389
 10
-10627.57722738782
 20
-23313.09559000889
 10
-10629.30726889173
 20
-23313.94111002842
  0
LWPOLYLINE
  5
90
330
2
100
AcDbEntity
  8
Access .2
100
AcDbPolyline
 90
        6
 70
     0
 43
0.0
 10
-10629.30525473157
 20
-23313.94007243076
 10
-10631.43709066907
 20
-23315.1240323917
 10
-10633.1443660597
 20
-23316.20417155186
 10
-10634.48683432142
 20
-23317.17264689365
 10
-10635.56825521985
 20
-23318.06604899326
 10
-10635.94331625501
 20
-23318.40677775303
  0
LINE
  5
91
330
2
100
AcDbEntity
  8
Access .2
 48
0.3203262329101562
100
AcDbLine
 10
-10638.2240169386
 20
-23329.66361369053
 30
0.0
 11
-10625.4109676222
 21
-23329.66361369053
 31
0.0
  0
LWPOLYLINE
  5
92
330
2
100
AcDbEntity
  8
Access .2
100
AcDbPolyline
 90
        3
 70
     0
 43
0.0
 10
-10635.94685629407
 20
-23318.41007365146
 10
-10637.14247396985
 20
-23319.61795939366
 10
-10638.00453451673
 20
-23320.64566935459
  0
LWPOLYLINE
  5
93
330
2
100
AcDbEntity
  8
Access .2
100
AcDbPolyline
 90
        6
 70
     0
 43
0.0
 10
-10638.00520590345
 20
-23320.64655436436
 10
-10638.84443930188
 20
-23321.85022868076
 10
-10639.45387533704
 20
-23322.92517985264
 10
-10640.00447348157
 20
-23324.14283121983
 10
-10640.50581625501
 20
-23325.56687296787
 10
-10640.67933920423
 20
-23326.1628202335
  0
LINE
  5
94
330
2
100
AcDbEntity
  8
Access .2
 48
0.025
100
AcDbLine
 10
-10641.08211020032
 20
-23329.66361369053
 30
0.0
 11
-10641.08211020032
 21
-23328.66361369053
 31
0.0
  0
LWPOLYLINE
  5
95
330
2
100
AcDbEntity
  8
Access .2
100
AcDbPolyline
 90
        3
 70
     0
 43
0.0
 10
-10638.00453451673
 20
-23320.64566935459
 10
-10638.08888510267
 20
-23320.78312052647
 10
-10638.09492758313
 20
-23320.82920206944
  0
LWPOLYLINE
  5
96
330
2
100
AcDbEntity
  8
Access .2
100
AcDbPolyline
 90
       11
 70
     0
 43
0.0
 10
-10638.09492758313
 20
-23320.82920206944
 10
-10638.5896785597
 20
-23321.52308024326
 10
-10639.04689291517
 20
-23322.24106730381
 10
-10639.45698813001
 20
-23322.98056925694
 10
-10639.82161215345
 20
-23323.74350871006
 10
-10640.14650229017
 20
-23324.53412760655
 10
-10640.43196371595
 20
-23325.34168375889
 10
-10640.67940023939
 20
-23326.16349162022
 10
-10640.88392904798
 20
-23327.00013102452
 10
-10641.02601889173
 20
-23327.82868327061
 10
-10641.08211020032
 20
-23328.66361369053
  0
LINE
  5
97
330
2
100
AcDbEntity
  8
Access .2
 48
0.0714508056640625
100
AcDbLine
 10
-10641.08211020032
 20
-23329.66361369053
 30
0.0
 11
-10638.22407797376
 21
-23329.66361369053
 31
0.0
  0
LINE
  5
98
330
2
100
AcDbEntity
  8
Access .2
 48
0.0411773681640625
100
AcDbLine
 10
-10625.41121176282
 20
-23329.66361369053
 30
0.0
 11
-10623.76411703626
 21
-23329.66361369053
 31
0.0
  0
ARC
  5
99
330
2
100
AcDbEntity
  8
Access .1
100
AcDbCircle
 10
-10603.13154867688
 20
-23338.16349162022
 30
0.0
 40
1.500114798545837
100
AcDbArc
 50
195.0034752331139
 51
270.0027568920092
  0
ARC
  5
9A
330
2
100
AcDbEntity
  8
Access .2
100
AcDbCircle
 10
-10548.63716391126
 20
-23602.01380289951
 30
0.0
 40
300.4226989746094
100
AcDbArc
 50
101.1824086417575
 51
102.6555300991501
  0
LINE
  5
9B
330
2
100
AcDbEntity
  8
Access .1
 48
0.3098190307626582
100
AcDbLine
 10
-10614.21614340345
 20
-23313.1022733585
 30
0.0
 11
-10601.82338217298
 21
-23313.10230387608
 31
0.0
  0
LWPOLYLINE
  5
9C
330
2
100
AcDbEntity
  8
Access .1
100
AcDbPolyline
 90
        3
 70
     0
 43
0.0
 10
-10617.15028646985
 20
-23313.10852946201
 10
-10614.39985922376
 20
-23313.10224284092
 10
-10614.22127035657
 20
-23313.1022733585
  0
LINE
  5
9D
330
2
100
AcDbEntity
  8
Access .1
 48
0.0006591796875
100
AcDbLine
 10
-10616.2611263136
 20
-23313.10230387608
 30
0.0
 11
-10616.2347591261
 21
-23313.10230387608
 31
0.0
  0
ARC
  5
9E
330
2
100
AcDbEntity
  8
Access .1
100
AcDbCircle
 10
-10616.27528646985
 20
-23374.40390910069
 30
0.0
 40
61.30162048339844
100
AcDbArc
 50
89.98626016430016
 51
90.81784932290259
  0
LINE
  5
9F
330
2
100
AcDbEntity
  8
Access .1
 48
0.2300439218602541
100
AcDbLine
 10
-10604.5785091261
 20
-23338.55182780186
 30
0.0
 11
-10606.96010092298
 21
-23329.66361369053
 31
0.0
  0
LINE
  5
A0
330
2
100
AcDbEntity
  8
Access .1
 48
0.3935104370117188
100
AcDbLine
 10
-10563.05433920423
 20
-23339.66361369053
 30
0.0
 11
-10578.7947566847
 21
-23339.66361369053
 31
0.0
  0
LINE
  5
A1
330
2
100
AcDbEntity
  8
Access .1
 48
0.2451950073242187
100
AcDbLine
 10
-10588.60255697767
 20
-23339.66361369053
 30
0.0
 11
-10578.7947566847
 21
-23339.66361369053
 31
0.0
  0
LINE
  5
A2
330
2
100
AcDbEntity
  8
Access .1
 48
0.0625762939453125
100
AcDbLine
 10
-10593.91719320813
 20
-23343.56534708897
 30
0.0
 11
-10591.41414145032
 21
-23343.56534708897
 31
0.0
  0
LINE
  5
A3
330
2
100
AcDbEntity
  8
Access .1
 48
0.0385589599609375
100
AcDbLine
 10
-10595.46010092298
 20
-23343.56534708897
 30
0.0
 11
-10593.91774252454
 21
-23343.56534708897
 31
0.0
  0
LINE
  5
A4
330
2
100
AcDbEntity
  8
Access .1
 48
0.0270339965820313
100
AcDbLine
 10
-10591.41377523938
 20
-23343.56534708897
 30
0.0
 11
-10590.3324153761
 21
-23343.56534708897
 31
0.0
  0
LINE
  5
A5
330
2
100
AcDbEntity
  8
Access .1
 48
0.000244140625
100
AcDbLine
 10
-10581.82161215345
 20
-23343.56534708897
 30
0.0
 11
-10581.81184652845
 21
-23343.56534708897
 31
0.0
  0
ARC
  5
A6
330
2
100
AcDbEntity
  8
Access .2
100
AcDbCircle
 10
-9966.665850434701
 20
-27023.7607511417
 30
0.0
 40
3771.356201171875
100
AcDbArc
 50
99.40332852856265
 51
99.56824345755414
  0
LINE
  5
A7
330
2
100
AcDbEntity
  8
Access .1
 48
0.0768417358398438
100
AcDbLine
 10
-10582.10927084485
 20
-23329.66361369053
 30
0.0
 11
-10579.03560141126
 21
-23329.66361369053
 31
0.0
  0
LINE
  5
A8
330
2
100
AcDbEntity
  8
Access .1
 48
0.0975395202636719
100
AcDbLine
 10
-10568.95308188001
 20
-23343.56540812412
 30
0.0
 11
-10568.95308188001
 21
-23339.66382731357
 31
0.0
  0
CIRCLE
  5
A9
330
2
100
AcDbEntity
  8
Access .1
  6
HIDDEN
100
AcDbCircle
 10
-10463.08211020032
 20
-23588.56534708897
 30
0.0
 40
52.5
  0
LINE
  5
AA
330
2
100
AcDbEntity
  8
Access .2
100
AcDbLine
 10
-10530.7176082472
 20
-23343.56534708897
 30
0.0
 11
-10463.08211020032
 21
-23343.56534708897
 31
0.0
  0
LINE
  5
AB
330
2
100
AcDbEntity
  8
Access .1
100
AcDbLine
 10
-10495.61610678235
 20
-23313.10257853428
 30
0.0
 11
-10463.08326986829
 21
-23313.10230387608
 31
0.0
  0
LINE
  5
AC
330
2
100
AcDbEntity
  8
Access .2
100
AcDbLine
 10
-10519.58833578626
 20
-23283.16394938389
 30
0.0
 11
-10463.08211020032
 21
-23283.16394938389
 31
0.0
  0
LINE
  5
AD
330
2
100
AcDbEntity
  8
Access .2
100
AcDbLine
 10
-10502.60060385267
 20
-23329.66361369053
 30
0.0
 11
-10463.08424643079
 21
-23329.66361369053
 31
0.0
  0
LINE
  5
AE
330
2
100
AcDbEntity
  8
Access .2
100
AcDbLine
 10
-10554.29268148939
 20
-23353.56534708897
 30
0.0
 11
-10463.08211020032
 21
-23353.56607951084
 31
0.0
  0
CIRCLE
  5
AF
330
2
100
AcDbEntity
  8
Access .1
  6
HIDDEN
100
AcDbCircle
 10
-10463.08211020032
 20
-23371.56534708897
 30
0.0
 40
29.0
  0
LINE
  5
B0
330
2
100
AcDbEntity
  8
Access .1
100
AcDbLine
 10
-10529.41841391126
 20
-23313.10190714756
 30
0.0
 11
-10495.61622885267
 21
-23313.10257853428
 31
0.0
  0
LINE
  5
B1
330
2
100
AcDbEntity
  8
Access .2
100
AcDbLine
 10
-10523.43916586438
 20
-23329.66361369053
 30
0.0
 11
-10502.60060385267
 21
-23329.66361369053
 31
0.0
  0
LINE
  5
B2
330
2
100
AcDbEntity
  8
Access .1
 48
0.4731277465820313
100
AcDbLine
 10
-10542.36390951673
 20
-23329.66361369053
 30
0.0
 11
-10523.43879965345
 21
-23329.66361369053
 31
0.0
  0
ARC
  5
B3
330
2
100
AcDbEntity
  8
Access .1
100
AcDbCircle
 10
-10549.06550863782
 20
-23338.16343058506
 30
0.0
 40
1.500169992446899
100
AcDbArc
 50
269.9957627780857
 51
344.9947652079462
  0
LINE
  5
B4
330
2
100
AcDbEntity
  8
Access .1
 48
0.2300439218602541
100
AcDbLine
 10
-10547.61928061048
 20
-23338.55182780186
 30
0.0
 11
-10545.2376888136
 21
-23329.66361369053
 31
0.0
  0
LINE
  5
B5
330
2
100
AcDbEntity
  8
Access .1
 48
0.1649055480957031
100
AcDbLine
 10
-10517.95308188001
 20
-23343.56537760655
 30
0.0
 11
-10517.95308188001
 21
-23336.96915568272
 31
0.0
  0
ARC
  5
B6
330
2
100
AcDbEntity
  8
Access .1
100
AcDbCircle
 10
-10543.45308188001
 20
-23429.66355265537
 30
0.0
 40
99.99995422363282
100
AcDbArc
 50
78.17658265162115
 51
79.65598109405167
  0
LWPOLYLINE
  5
B7
330
2
100
AcDbEntity
  8
Access .1
100
AcDbPolyline
 90
        9
 70
     0
 43
0.0
 10
-10525.51063803235
 20
-23331.2854398624
 10
-10526.12745932142
 20
-23331.06696452061
 10
-10526.43550375501
 20
-23330.8971952335
 10
-10526.4720638136
 20
-23330.87156046787
 10
-10526.46901205579
 20
-23330.8740323917
 10
-10526.47029379407
 20
-23330.87265910068
 10
-10526.83949545423
 20
-23330.4270414249
 10
-10527.10731771985
 20
-23329.92478312412
 10
-10527.21113852064
 20
-23329.66346110264
  0
LINE
  5
B8
330
2
100
AcDbEntity
  8
Access .1
 48
0.0008458315094415
100
AcDbLine
 10
-10525.51399496595
 20
-23331.28455485264
 30
0.0
 11
-10525.48121908704
 21
-23331.29294718662
 31
0.0
  0
LINE
  5
B9
330
2
100
AcDbEntity
  8
Access .1
 48
0.0022700131041448
100
AcDbLine
 10
-10525.48121908704
 20
-23331.29294718662
 30
0.0
 11
-10525.39290121595
 21
-23331.31403483311
 31
0.0
  0
LWPOLYLINE
  5
BA
330
2
100
AcDbEntity
  8
Access .1
100
AcDbPolyline
 90
       11
 70
     0
 43
0.0
 10
-10517.95308188001
 20
-23336.96915568272
 10
-10517.97841146985
 20
-23335.80536784092
 10
-10518.08558920423
 20
-23334.978249921
 10
-10518.24177816907
 20
-23334.4218839542
 10
-10518.47066000501
 20
-23333.92414225498
 10
-10518.77443197767
 20
-23333.48685587803
 10
-10519.1546810011
 20
-23333.10865153233
 10
-10519.68586996595
 20
-23332.74521769443
 10
-10520.36189535657
 20
-23332.43497599521
 10
-10521.26484945814
 20
-23332.16074503819
 10
-10521.84041098157
 20
-23332.027078046
  0
ARC
  5
BB
330
2
100
AcDbEntity
  8
Access .1
100
AcDbCircle
 10
-10543.45308188001
 20
-23429.66361369053
 30
0.0
 40
99.99999237060547
100
AcDbArc
 50
77.51833709954098
 51
78.17657680195586
  0
LINE
  5
BC
330
2
100
AcDbEntity
  8
Access .1
 48
0.4662490844726563
100
AcDbLine
 10
-10542.45308188001
 20
-23285.11359537998
 30
0.0
 11
-10523.8031185011
 21
-23285.11359537998
 31
0.0
  0
LWPOLYLINE
  5
BD
330
2
100
AcDbEntity
  8
Access .2
100
AcDbPolyline
 90
        4
 70
     0
 43
0.0
 10
-10527.18965414563
 20
-23296.65781535068
 10
-10530.90840414564
 20
-23296.67218912998
 10
-10535.45570639173
 20
-23296.65519083897
 10
-10536.41163900892
 20
-23296.65229166904
  0
LWPOLYLINE
  5
BE
330
2
100
AcDbEntity
  8
Access .2
100
AcDbPolyline
 90
        5
 70
     0
 43
0.0
 10
-10543.31227377454
 20
-23297.00190104404
 10
-10544.83388021985
 20
-23297.20359171787
 10
-10546.33973959485
 20
-23297.44025553623
 10
-10549.30580404798
 20
-23298.00019205967
 10
-10551.74147299329
 20
-23298.55262125889
  0
LINE
  5
BF
330
2
100
AcDbEntity
  8
Access .2
 48
0.0000616094275916
100
AcDbLine
 10
-10551.43294027845
 20
-23298.52472819248
 30
0.0
 11
-10551.4304988722
 21
-23298.52439249912
 31
0.0
  0
ARC
  5
C0
330
2
100
AcDbEntity
  8
Access .2
100
AcDbCircle
 10
-10537.63618734876
 20
-23344.52405680576
 30
0.0
 40
47.85986328125
100
AcDbArc
 50
91.86121532931267
 51
96.81114915614138
  0
LWPOLYLINE
  5
C1
330
2
100
AcDbEntity
  8
Access .1
100
AcDbPolyline
 90
        7
 70
     0
 43
0.0
 10
-10542.45308188001
 20
-23285.11359537998
 10
-10542.77784994642
 20
-23285.13358439365
 10
-10543.04609945813
 20
-23285.22574747959
 10
-10543.26191977063
 20
-23285.40412272373
 10
-10543.39796713392
 20
-23285.65021647373
 10
-10543.44941977064
 20
-23285.9329007999
 10
-10543.45308188001
 20
-23286.11359537998
  0
LINE
  5
C2
330
2
100
AcDbEntity
  8
Access .1
 48
0.0588943481445313
100
AcDbLine
 10
-10543.45308188001
 20
-23294.66361369053
 30
0.0
 11
-10543.45308188001
 21
-23297.01938761631
 31
0.0
  0
LINE
  5
C3
330
2
100
AcDbEntity
  8
Access .1
 48
0.0102272033691406
100
AcDbLine
 10
-10543.45308188001
 20
-23294.66361369053
 30
0.0
 11
-10543.45308188001
 21
-23294.25452555577
 31
0.0
  0
LINE
  5
C4
330
2
100
AcDbEntity
  8
Access .1
 48
0.0588943481445313
100
AcDbLine
 10
-10543.45308188001
 20
-23297.01938761631
 30
0.0
 11
-10543.45308188001
 21
-23294.66361369053
 31
0.0
  0
LINE
  5
C5
330
2
100
AcDbEntity
  8
Access .1
 48
0.0358993530273438
100
AcDbLine
 10
-10543.45308188001
 20
-23287.54956950108
 30
0.0
 11
-10543.45308188001
 21
-23286.11359537998
 31
0.0
  0
LINE
  5
C6
330
2
100
AcDbEntity
  8
Access .1
 48
0.1676239013671875
100
AcDbLine
 10
-10543.45308188001
 20
-23294.25452555577
 30
0.0
 11
-10543.45308188001
 21
-23287.54956950108
 31
0.0
  0
LINE
  5
C7
330
2
100
AcDbEntity
  8
Access .1
 48
0.0102272033691406
100
AcDbLine
 10
-10543.45308188001
 20
-23294.25452555577
 30
0.0
 11
-10543.45308188001
 21
-23294.66361369053
 31
0.0
  0
ARC
  5
C8
330
2
100
AcDbEntity
  8
Access .2
100
AcDbCircle
 10
-10537.00789145032
 20
-23369.93683756748
 30
0.0
 40
73.28040313720703
100
AcDbArc
 50
89.53382159475111
 51
91.7068940850458
  0
ARC
  5
C9
330
2
100
AcDbEntity
  8
Access .2
100
AcDbCircle
 10
-10524.73640707532
 20
-23292.82114542881
 30
0.0
 40
3.843727827072143
100
AcDbArc
 50
273.0228822237971
 51
287.3722625228806
  0
ARC
  5
CA
330
2
100
AcDbEntity
  8
Access .2
100
AcDbCircle
 10
-10524.71626547376
 20
-23293.18497599522
 30
0.0
 40
3.479542255401611
100
AcDbArc
 50
269.8723344246361
 51
273.0081630140794
  0
LINE
  5
CB
330
2
100
AcDbEntity
  8
Access .2
 48
0.0088470795845583
100
AcDbLine
 10
-10525.07789877454
 20
-23296.66349162022
 30
0.0
 11
-10524.7240169386
 21
-23296.66446818272
 31
0.0
  0
LINE
  5
CC
330
2
100
AcDbEntity
  8
Access .2
 48
0.0527940832864361
100
AcDbLine
 10
-10527.18965414563
 20
-23296.65781535068
 30
0.0
 11
-10525.07789877454
 21
-23296.66361369053
 31
0.0
  0
LWPOLYLINE
  5
CD
330
2
100
AcDbEntity
  8
Access .1
100
AcDbPolyline
 90
        7
 70
     0
 43
0.0
 10
-10523.8031185011
 20
-23285.11359537998
 10
-10523.47841146985
 20
-23285.13358439365
 10
-10523.21010092298
 20
-23285.22574747959
 10
-10522.99428061048
 20
-23285.40412272373
 10
-10522.85829428235
 20
-23285.65021647373
 10
-10522.80678061048
 20
-23285.9329007999
 10
-10522.8031185011
 20
-23286.11359537998
  0
ARC
  5
CE
330
2
100
AcDbEntity
  8
Access .2
100
AcDbCircle
 10
-10524.26106527845
 20
-23294.03083170811
 30
0.0
 40
2.539990901947021
100
AcDbArc
 50
294.0134678665209
 51
307.65546914886
  0
LWPOLYLINE
  5
CF
330
2
100
AcDbEntity
  8
Access .2
100
AcDbPolyline
 90
       10
 70
     0
 43
0.0
 10
-10519.58790854017
 20
-23283.16394938389
 10
-10520.22560385267
 20
-23283.23240031162
 10
-10520.83424643079
 20
-23283.43497599522
 10
-10521.38582113782
 20
-23283.76236857334
 10
-10521.8553035597
 20
-23284.19956339756
 10
-10522.22114828626
 20
-23284.72647990147
 10
-10522.46657064954
 20
-23285.31913126866
 10
-10522.58168295423
 20
-23285.97086466709
 10
-10522.58815268079
 20
-23286.65921915928
 10
-10522.58833578626
 20
-23289.20539225498
  0
LINE
  5
D0
330
2
100
AcDbEntity
  8
Access .1
 48
0.0361831665039063
100
AcDbLine
 10
-10522.8031185011
 20
-23294.66361369053
 30
0.0
 11
-10522.8031185011
 21
-23296.11094035068
 31
0.0
  0
LINE
  5
D1
330
2
100
AcDbEntity
  8
Access .1
 48
0.0102272033691406
100
AcDbLine
 10
-10522.8031185011
 20
-23294.66361369053
 30
0.0
 11
-10522.8031185011
 21
-23294.25452555577
 31
0.0
  0
LINE
  5
D2
330
2
100
AcDbEntity
  8
Access .1
 48
0.0361831665039063
100
AcDbLine
 10
-10522.8031185011
 20
-23296.11094035068
 30
0.0
 11
-10522.8031185011
 21
-23294.66361369053
 31
0.0
  0
LINE
  5
D3
330
2
100
AcDbEntity
  8
Access .1
 48
0.0358993530273438
100
AcDbLine
 10
-10522.8031185011
 20
-23287.54956950108
 30
0.0
 11
-10522.8031185011
 21
-23286.11359537998
 31
0.0
  0
LINE
  5
D4
330
2
100
AcDbEntity
  8
Access .1
 48
0.1676239013671875
100
AcDbLine
 10
-10522.8031185011
 20
-23294.25452555577
 30
0.0
 11
-10522.8031185011
 21
-23287.54956950108
 31
0.0
  0
LINE
  5
D5
330
2
100
AcDbEntity
  8
Access .1
 48
0.0102272033691406
100
AcDbLine
 10
-10522.8031185011
 20
-23294.25452555577
 30
0.0
 11
-10522.8031185011
 21
-23294.66361369053
 31
0.0
  0
ELLIPSE
  5
D6
330
2
100
AcDbEntity
  8
Access .2
100
AcDbEllipse
 10
-10527.70418051282
 20
-23293.64780558506
 30
0.0
 11
5.53302001953125
 21
-1.636688232421875
 31
0.0
210
0.0
220
0.0
230
1.0
 40
0.4772751144593045
 41
5.958540439605712
 42
6.234205722808835
  0
ARC
  5
D7
330
2
100
AcDbEntity
  8
Access .2
100
AcDbCircle
 10
-10524.57240561048
 20
-23293.36338175694
 30
0.0
 40
3.276682138442993
100
AcDbArc
 50
287.4662117147088
 51
294.2394927623932
  0
LINE
  5
D8
330
2
100
AcDbEntity
  8
Access .2
 48
0.1677986145643934
100
AcDbLine
 10
-10522.58815268079
 20
-23295.91767252842
 30
0.0
 11
-10522.58833578626
 21
-23289.20572794834
 31
0.0
  0
LINE
  5
D9
330
2
100
AcDbEntity
  8
Access .2
100
AcDbLine
 10
-10463.08211020032
 20
-23343.56534708897
 30
0.0
 11
-10395.44661215345
 21
-23343.56534708897
 31
0.0
  0
LINE
  5
DA
330
2
100
AcDbEntity
  8
Access .1
100
AcDbLine
 10
-10430.54799154798
 20
-23313.10257853428
 30
0.0
 11
-10396.74580648938
 21
-23313.10190714756
 31
0.0
  0
LINE
  5
DB
330
2
100
AcDbEntity
  8
Access .2
100
AcDbLine
 10
-10463.07997396985
 20
-23329.66361369053
 30
0.0
 11
-10423.56361654798
 21
-23329.66361369053
 31
0.0
  0
LINE
  5
DC
330
2
100
AcDbEntity
  8
Access .1
100
AcDbLine
 10
-10463.08095053235
 20
-23313.10230387608
 30
0.0
 11
-10430.54811361829
 21
-23313.10257853428
 31
0.0
  0
LINE
  5
DD
330
2
100
AcDbEntity
  8
Access .2
 48
0.000067138671875
100
AcDbLine
 10
-10438.51716879407
 20
-23343.56534708897
 30
0.0
 11
-10438.5144832472
 21
-23343.56534708897
 31
0.0
  0
LWPOLYLINE
  5
DE
330
2
100
AcDbEntity
  8
Access .1
100
AcDbPolyline
 90
       11
 70
     0
 43
0.0
 10
-10408.21113852063
 20
-23336.96915568272
 10
-10408.18580893079
 20
-23335.80536784092
 10
-10408.07863119642
 20
-23334.978249921
 10
-10407.92244223157
 20
-23334.4218839542
 10
-10407.69356039563
 20
-23333.92414225498
 10
-10407.38978842298
 20
-23333.48685587803
 10
-10407.00953939954
 20
-23333.10865153233
 10
-10406.4783504347
 20
-23332.74521769443
 10
-10405.80232504407
 20
-23332.43497599521
 10
-10404.89937094251
 20
-23332.16074503819
 10
-10404.32380941907
 20
-23332.027078046
  0
LINE
  5
DF
330
2
100
AcDbEntity
  8
Access .2
100
AcDbLine
 10
-10423.56361654798
 20
-23329.66361369053
 30
0.0
 11
-10402.72505453626
 21
-23329.66361369053
 31
0.0
  0
LINE
  5
E0
330
2
100
AcDbEntity
  8
Access .1
 48
0.1649124145507812
100
AcDbLine
 10
-10408.21113852063
 20
-23336.96915568272
 30
0.0
 11
-10408.21113852063
 21
-23343.56565226475
 31
0.0
  0
LINE
  5
E1
330
2
100
AcDbEntity
  8
Access .1
 48
0.0022700131041448
100
AcDbLine
 10
-10400.7713191847
 20
-23331.31403483311
 30
0.0
 11
-10400.6830013136
 21
-23331.29294718662
 31
0.0
  0
ARC
  5
E2
330
2
100
AcDbEntity
  8
Access .1
100
AcDbCircle
 10
-10382.71113852063
 20
-23429.66355265537
 30
0.0
 40
99.99995422363282
100
AcDbArc
 50
100.3440298245954
 51
101.8234148414259
  0
ARC
  5
E3
330
2
100
AcDbEntity
  8
Access .1
100
AcDbCircle
 10
-10382.71113852063
 20
-23429.66361369053
 30
0.0
 40
100.0
100
AcDbArc
 50
101.8234215267413
 51
102.4816612333695
  0
LINE
  5
E4
330
2
100
AcDbEntity
  8
Access .1
 48
0.0008458315094415
100
AcDbLine
 10
-10400.6830013136
 20
-23331.29294718662
 30
0.0
 11
-10400.6502254347
 21
-23331.28455485264
 31
0.0
  0
LWPOLYLINE
  5
E5
330
2
100
AcDbEntity
  8
Access .1
100
AcDbPolyline
 90
        9
 70
     0
 43
0.0
 10
-10400.65358236829
 20
-23331.2854398624
 10
-10400.03676107923
 20
-23331.06696452061
 10
-10399.72871664563
 20
-23330.8971952335
 10
-10399.69215658704
 20
-23330.87156046787
 10
-10399.69520834485
 20
-23330.8740323917
 10
-10399.69392660657
 20
-23330.87265910068
 10
-10399.32472494642
 20
-23330.4270414249
 10
-10399.05690268079
 20
-23329.92478312412
 10
-10398.95308188001
 20
-23329.66346110264
  0
LINE
  5
E6
330
2
100
AcDbEntity
  8
Access .2
100
AcDbLine
 10
-10463.08211020032
 20
-23283.16394938389
 30
0.0
 11
-10406.57588461439
 21
-23283.16394938389
 31
0.0
  0
LWPOLYLINE
  5
E7
330
2
100
AcDbEntity
  8
Access .2
100
AcDbPolyline
 90
       10
 70
     0
 43
0.0
 10
-10406.57631186048
 20
-23283.16394938389
 10
-10405.93861654798
 20
-23283.23240031162
 10
-10405.32997396985
 20
-23283.43497599522
 10
-10404.77839926282
 20
-23283.76236857334
 10
-10404.30891684095
 20
-23284.19956339756
 10
-10403.94307211438
 20
-23284.72647990147
 10
-10403.6976497511
 20
-23285.31913126866
 10
-10403.58253744642
 20
-23285.97086466709
 10
-10403.57606771985
 20
-23286.65921915928
 10
-10403.57588461438
 20
-23289.20539225498
  0
LWPOLYLINE
  5
E8
330
2
100
AcDbEntity
  8
Access .2
100
AcDbPolyline
 90
        4
 70
     0
 43
0.0
 10
-10398.97456625501
 20
-23296.65781535068
 10
-10395.25581625501
 20
-23296.67218912998
 10
-10390.70851400892
 20
-23296.65519083897
 10
-10389.75258139173
 20
-23296.65229166904
  0
LINE
  5
E9
330
2
100
AcDbEntity
  8
Access .2
 48
0.0527940832864361
100
AcDbLine
 10
-10401.0863216261
 20
-23296.66361369053
 30
0.0
 11
-10398.97456625501
 21
-23296.65781535068
 31
0.0
  0
LWPOLYLINE
  5
EA
330
2
100
AcDbEntity
  8
Access .1
100
AcDbPolyline
 90
        7
 70
     0
 43
0.0
 10
-10402.36110189954
 20
-23285.11359537998
 10
-10402.68580893079
 20
-23285.13358439365
 10
-10402.95411947767
 20
-23285.22574747959
 10
-10403.16993979017
 20
-23285.40412272373
 10
-10403.30592611829
 20
-23285.65021647373
 10
-10403.35743979017
 20
-23285.9329007999
 10
-10403.36110189954
 20
-23286.11359537998
  0
ARC
  5
EB
330
2
100
AcDbEntity
  8
Access .2
100
AcDbCircle
 10
-10401.9031551222
 20
-23294.03083170811
 30
0.0
 40
2.539990901947021
100
AcDbArc
 50
232.3445308511395
 51
245.9865336932219
  0
LINE
  5
EC
330
2
100
AcDbEntity
  8
Access .1
 48
0.0102272033691406
100
AcDbLine
 10
-10403.36110189954
 20
-23294.25452555577
 30
0.0
 11
-10403.36110189954
 21
-23294.66361369053
 31
0.0
  0
LINE
  5
ED
330
2
100
AcDbEntity
  8
Access .1
 48
0.0361831665039063
100
AcDbLine
 10
-10403.36110189954
 20
-23294.66361369053
 30
0.0
 11
-10403.36110189954
 21
-23296.11094035068
 31
0.0
  0
LINE
  5
EE
330
2
100
AcDbEntity
  8
Access .1
 48
0.0358993530273438
100
AcDbLine
 10
-10403.36110189954
 20
-23287.54956950108
 30
0.0
 11
-10403.36110189954
 21
-23286.11359537998
 31
0.0
  0
LINE
  5
EF
330
2
100
AcDbEntity
  8
Access .1
 48
0.0361831665039063
100
AcDbLine
 10
-10403.36110189954
 20
-23296.11094035068
 30
0.0
 11
-10403.36110189954
 21
-23294.66361369053
 31
0.0
  0
LINE
  5
F0
330
2
100
AcDbEntity
  8
Access .1
 48
0.1676239013671875
100
AcDbLine
 10
-10403.36110189954
 20
-23294.25452555577
 30
0.0
 11
-10403.36110189954
 21
-23287.54956950108
 31
0.0
  0
LINE
  5
F1
330
2
100
AcDbEntity
  8
Access .1
 48
0.0102272033691406
100
AcDbLine
 10
-10403.36110189954
 20
-23294.66361369053
 30
0.0
 11
-10403.36110189954
 21
-23294.25452555577
 31
0.0
  0
LINE
  5
F2
330
2
100
AcDbEntity
  8
Access .2
 48
0.0088470795845583
100
AcDbLine
 10
-10401.44020346204
 20
-23296.66446818272
 30
0.0
 11
-10401.0863216261
 21
-23296.66349162022
 31
0.0
  0
ARC
  5
F3
330
2
100
AcDbEntity
  8
Access .2
100
AcDbCircle
 10
-10401.44795492689
 20
-23293.18497599522
 30
0.0
 40
3.479542255401611
100
AcDbArc
 50
266.9918386911276
 51
270.1276673896375
  0
ARC
  5
F4
330
2
100
AcDbEntity
  8
Access .2
100
AcDbCircle
 10
-10401.42781332532
 20
-23292.82114542881
 30
0.0
 40
3.843727827072143
100
AcDbArc
 50
252.6277391068163
 51
266.9771196945476
  0
ARC
  5
F5
330
2
100
AcDbEntity
  8
Access .2
100
AcDbCircle
 10
-10401.59181479017
 20
-23293.36338175694
 30
0.0
 40
3.276679992675781
100
AcDbArc
 50
245.7604475989064
 51
252.5337899141054
  0
ELLIPSE
  5
F6
330
2
100
AcDbEntity
  8
Access .2
100
AcDbEllipse
 10
-10398.46003988782
 20
-23293.64777506748
 30
0.0
 11
5.53302001953125
 21
1.636688232421875
 31
0.0
210
0.0
220
0.0
230
1.0
 40
0.4772759296035945
 41
3.190526247024534
 42
3.466279506683348
  0
LINE
  5
F7
330
2
100
AcDbEntity
  8
Access .2
 48
0.1677986145643934
100
AcDbLine
 10
-10403.57606771985
 20
-23295.91767252842
 30
0.0
 11
-10403.57588461438
 21
-23289.20572794834
 31
0.0
  0
ARC
  5
F8
330
2
100
AcDbEntity
  8
Access .2
100
AcDbCircle
 10
-10389.15632895032
 20
-23369.93683756748
 30
0.0
 40
73.28040313720703
100
AcDbArc
 50
88.2931041014438
 51
90.46617659112827
  0
LWPOLYLINE
  5
F9
330
2
100
AcDbEntity
  8
Access .2
100
AcDbPolyline
 90
       25
 70
     0
 43
0.0
 10
-10290.76759604017
 20
-23448.78165568271
 10
-10291.76240805188
 20
-23460.73523844639
 10
-10292.85280111829
 20
-23472.68036784092
 10
-10294.03914145032
 20
-23484.62348307529
 10
-10295.32039145032
 20
-23496.55677164951
 10
-10296.69649008313
 20
-23508.48392619053
 10
-10298.16621664563
 20
-23520.39988078038
 10
-10299.72926596204
 20
-23532.30599345127
 10
-10301.38447836439
 20
-23544.19960917393
 10
-10303.52192953626
 20
-23558.65667094151
 10
-10305.79274252454
 20
-23573.0930570499
 10
-10308.19484213392
 20
-23587.50737894932
 10
-10310.72603109876
 20
-23601.89846171299
 10
-10313.38399008314
 20
-23616.26543558994
 10
-10316.16633871595
 20
-23630.60746134678
 10
-10319.07051352064
 20
-23644.92406596104
 10
-10322.09401205579
 20
-23659.21498240391
 10
-10325.19929770032
 20
-23673.32457102695
 10
-10328.41627768079
 20
-23687.40926493565
 10
-10331.74251059095
 20
-23701.46975077549
 10
-10335.1756160597
 20
-23715.50654734531
 10
-10338.71321371595
 20
-23729.52089060703
 10
-10342.35310629407
 20
-23743.51390208164
 10
-10346.09340170423
 20
-23757.48710764805
 10
-10349.93001059095
 20
-23771.43460978428
  0
LWPOLYLINE
  5
FA
330
2
100
AcDbEntity
  8
Access .2
100
AcDbPolyline
 90
        4
 70
     0
 43
0.0
 10
-10323.60170248548
 20
-23695.19038523594
 10
-10326.70918539563
 20
-23721.32521952549
 10
-10328.81831625501
 20
-23738.74172343174
 10
-10333.08211020032
 20
-23773.56534708897
  0
LINE
  5
FB
330
2
100
AcDbEntity
  8
Access .2
 48
0.3614898681640625
100
AcDbLine
 10
-10349.24348715345
 20
-23773.56534708897
 30
0.0
 11
-10334.78389242689
 21
-23773.56534708897
 31
0.0
  0
LINE
  5
FC
330
2
100
AcDbEntity
  8
Access .2
 48
0.330999755859375
100
AcDbLine
 10
-10362.48353842298
 20
-23773.56534708897
 30
0.0
 11
-10349.2435481886
 21
-23773.56534708897
 31
0.0
  0
LINE
  5
FD
330
2
100
AcDbEntity
  8
Access .2
 48
0.0005905151367188
100
AcDbLine
 10
-10334.71296957532
 20
-23773.56534708897
 30
0.0
 11
-10334.68934896985
 21
-23773.56534708897
 31
0.0
  0
LINE
  5
FE
330
2
100
AcDbEntity
  8
Access .2
 48
0.0401809692382813
100
AcDbLine
 10
-10334.68934896985
 20
-23773.56534708897
 30
0.0
 11
-10333.08211020032
 21
-23773.56534708897
 31
0.0
  0
LINE
  5
FF
330
2
100
AcDbEntity
  8
Access .2
 48
0.0017730712890625
100
AcDbLine
 10
-10334.78389242689
 20
-23773.56534708897
 30
0.0
 11
-10334.71296957532
 21
-23773.56534708897
 31
0.0
  0
LWPOLYLINE
  5
100
330
2
100
AcDbEntity
  8
Access .2
100
AcDbPolyline
 90
        7
 70
     0
 43
0.0
 10
-10323.82979086438
 20
-23696.48646677891
 10
-10321.93287924329
 20
-23682.27200449863
 10
-10320.01320150892
 20
-23667.47313059727
 10
-10318.44154623548
 20
-23655.01171244541
 10
-10317.11635092298
 20
-23644.18715800205
 10
-10315.82905844251
 20
-23633.35746134678
 10
-10314.58217123548
 20
-23622.52309550205
  0
LWPOLYLINE
  5
101
330
2
100
AcDbEntity
  8
Access .2
100
AcDbPolyline
 90
        7
 70
     0
 43
0.0
 10
-10311.70790365735
 20
-23308.8906339542
 10
-10308.58211020032
 20
-23309.65778483311
 10
-10305.36482504407
 20
-23310.57062662998
 10
-10302.92738607923
 20
-23311.36219157139
 10
-10300.54103354017
 20
-23312.25379313389
 10
-10298.58699301282
 20
-23313.09559000889
 10
-10296.85695150892
 20
-23313.94111002842
  0
LINE
  5
102
330
2
100
AcDbEntity
  8
Access .2
 48
0.3203262329101562
100
AcDbLine
 10
-10300.75325277845
 20
-23329.66361369053
 30
0.0
 11
-10287.94020346204
 21
-23329.66361369053
 31
0.0
  0
LINE
  5
103
330
2
100
AcDbEntity
  8
Access .2
100
AcDbLine
 10
-10371.8714778761
 20
-23353.56534708897
 30
0.0
 11
-10283.56569174329
 21
-23353.56534708897
 31
0.0
  0
LWPOLYLINE
  5
104
330
2
100
AcDbEntity
  8
Access .2
100
AcDbPolyline
 90
        4
 70
     0
 43
0.0
 10
-10364.96010092298
 20
-23299.58579386631
 10
-10359.65883139173
 20
-23300.35904826084
 10
-10352.95051840345
 20
-23301.45786417881
 10
-10343.32124594251
 20
-23303.08091105381
  0
LINE
  5
105
330
2
100
AcDbEntity
  8
Access .1
100
AcDbLine
 10
-10348.64723471204
 20
-23343.56534708897
 30
0.0
 11
-10323.55128744642
 21
-23343.56534708897
 31
0.0
  0
LINE
  5
106
330
2
100
AcDbEntity
  8
Access .1
100
AcDbLine
 10
-10362.81099203626
 20
-23313.10221232334
 30
0.0
 11
-10324.34083822767
 21
-23313.10230387608
 31
0.0
  0
ARC
  5
107
330
2
100
AcDbEntity
  8
Access .2
100
AcDbCircle
 10
-10959.49836996595
 20
-27023.7607511417
 30
0.0
 40
3771.356201171875
100
AcDbArc
 50
80.43176159380356
 51
80.59667568287885
  0
LINE
  5
108
330
2
100
AcDbEntity
  8
Access .1
 48
0.2451950073242187
100
AcDbLine
 10
-10347.36946371595
 20
-23339.66361369053
 30
0.0
 11
-10337.56166342298
 21
-23339.66361369053
 31
0.0
  0
LINE
  5
109
330
2
100
AcDbEntity
  8
Access .2
100
AcDbLine
 10
-10344.0540950636
 20
-23329.66361369053
 30
0.0
 11
-10302.40010336439
 21
-23329.66361369053
 31
0.0
  0
LINE
  5
10A
330
2
100
AcDbEntity
  8
Access .1
 48
0.3496597290039063
100
AcDbLine
 10
-10377.09627035657
 20
-23339.66361369053
 30
0.0
 11
-10363.10988119642
 21
-23339.66361369053
 31
0.0
  0
LINE
  5
10B
330
2
100
AcDbEntity
  8
Access .1
100
AcDbLine
 10
-10383.79640463392
 20
-23329.66361369053
 30
0.0
 11
-10347.12886313001
 21
-23329.66361369053
 31
0.0
  0
ARC
  5
10C
330
2
100
AcDbEntity
  8
Access .1
100
AcDbCircle
 10
-10377.09871176282
 20
-23338.16343058506
 30
0.0
 40
1.500169992446899
100
AcDbArc
 50
195.0052380907581
 51
270.0042390428534
  0
LINE
  5
10D
330
2
100
AcDbEntity
  8
Access .1
 48
0.2300439218602541
100
AcDbLine
 10
-10378.54493979017
 20
-23338.55182780186
 30
0.0
 11
-10380.92653158704
 21
-23329.66361369053
 31
0.0
  0
LINE
  5
10E
330
2
100
AcDbEntity
  8
Access .1
 48
0.3935104370117188
100
AcDbLine
 10
-10363.10988119642
 20
-23339.66361369053
 30
0.0
 11
-10347.36946371595
 21
-23339.66361369053
 31
0.0
  0
LINE
  5
10F
330
2
100
AcDbEntity
  8
Access .1
 48
0.0975440979003907
100
AcDbLine
 10
-10357.21113852063
 20
-23339.66385783115
 30
0.0
 11
-10357.21113852063
 21
-23343.56562174717
 31
0.0
  0
LINE
  5
110
330
2
100
AcDbEntity
  8
Access .1
 48
0.0005645751953125
100
AcDbLine
 10
-10344.35231283704
 20
-23343.56534708897
 30
0.0
 11
-10344.32972982923
 21
-23343.56534708897
 31
0.0
  0
LINE
  5
111
330
2
100
AcDbEntity
  8
Access .1
 48
0.0768417358398438
100
AcDbLine
 10
-10347.12861898938
 20
-23329.66361369053
 30
0.0
 11
-10344.05494955579
 21
-23329.66361369053
 31
0.0
  0
LINE
  5
112
330
2
100
AcDbEntity
  8
Access .1
 48
0.2300439218602541
100
AcDbLine
 10
-10321.58571127454
 20
-23338.55182780186
 30
0.0
 11
-10319.20411947767
 21
-23329.66361369053
 31
0.0
  0
LINE
  5
113
330
2
100
AcDbEntity
  8
Access .1
 48
0.3100265502939075
100
AcDbLine
 10
-10324.34083822767
 20
-23313.10230387608
 30
0.0
 11
-10311.93977621595
 21
-23313.1022733585
 31
0.0
  0
LWPOLYLINE
  5
114
330
2
100
AcDbEntity
  8
Access .2
100
AcDbPolyline
 90
        3
 70
     0
 43
0.0
 10
-10332.61543539564
 20
-23304.87079752842
 10
-10324.34388998548
 20
-23306.32727946202
 10
-10319.26509359876
 20
-23307.29450358311
  0
ARC
  5
115
330
2
100
AcDbEntity
  8
Access .1
100
AcDbCircle
 10
-10323.03267172376
 20
-23338.16349162022
 30
0.0
 40
1.500114798545837
100
AcDbArc
 50
269.997251759536
 51
344.9965297149063
  0
LINE
  5
116
330
2
100
AcDbEntity
  8
Access .1
 48
0.0385589599609375
100
AcDbLine
 10
-10332.24641684095
 20
-23343.56534708897
 30
0.0
 11
-10330.70405844251
 21
-23343.56534708897
 31
0.0
  0
LINE
  5
117
330
2
100
AcDbEntity
  8
Access .1
 48
0.3631744384765625
100
AcDbLine
 10
-10337.56166342298
 20
-23339.66361369053
 30
0.0
 11
-10323.03468588392
 21
-23339.66361369053
 31
0.0
  0
LINE
  5
118
330
2
100
AcDbEntity
  8
Access .1
 48
0.062591552734375
100
AcDbLine
 10
-10334.75007895032
 20
-23343.56534708897
 30
0.0
 11
-10332.24641684095
 21
-23343.56534708897
 31
0.0
  0
LWPOLYLINE
  5
119
330
2
100
AcDbEntity
  8
Access .1
100
AcDbPolyline
 90
        3
 70
     0
 43
0.0
 10
-10309.01393393079
 20
-23313.10852946201
 10
-10311.76875570813
 20
-23313.10224284092
 10
-10311.95173910657
 20
-23313.1022733585
  0
ARC
  5
11A
330
2
100
AcDbEntity
  8
Access .1
100
AcDbCircle
 10
-10309.88893393079
 20
-23374.40390910069
 30
0.0
 40
61.30162048339844
100
AcDbArc
 50
89.18214880958993
 51
90.01373801476068
  0
ARC
  5
11B
330
2
100
AcDbEntity
  8
Access .2
100
AcDbCircle
 10
-10377.52705648939
 20
-23602.01380289951
 30
0.0
 40
300.4226989746094
100
AcDbArc
 50
77.34446748649816
 51
78.8175896830909
  0
LINE
  5
11C
330
2
100
AcDbEntity
  8
Access .1
 48
0.0006591796875
100
AcDbLine
 10
-10309.92946127454
 20
-23313.10230387608
 30
0.0
 11
-10309.90309408704
 21
-23313.10230387608
 31
0.0
  0
LINE
  5
11D
330
2
100
AcDbEntity
  8
Access .2
 48
0.0411773681640625
100
AcDbLine
 10
-10302.40010336439
 20
-23329.66361369053
 30
0.0
 11
-10300.75300863782
 21
-23329.66361369053
 31
0.0
  0
LWPOLYLINE
  5
11E
330
2
100
AcDbEntity
  8
Access .2
100
AcDbPolyline
 90
        3
 70
     0
 43
0.0
 10
-10374.73372152845
 20
-23298.52439249912
 10
-10369.61616781751
 20
-23299.01450480381
 10
-10364.96028402845
 20
-23299.58576334873
  0
LWPOLYLINE
  5
11F
330
2
100
AcDbEntity
  8
Access .2
100
AcDbPolyline
 90
        5
 70
     0
 43
0.0
 10
-10382.8519466261
 20
-23297.00190104404
 10
-10381.33034018079
 20
-23297.20359171787
 10
-10379.82448080579
 20
-23297.44025553623
 10
-10376.85841635267
 20
-23298.00019205967
 10
-10374.42274740735
 20
-23298.55262125889
  0
LWPOLYLINE
  5
120
330
2
100
AcDbEntity
  8
Access .1
100
AcDbPolyline
 90
        7
 70
     0
 43
0.0
 10
-10383.71113852063
 20
-23285.11359537998
 10
-10383.38637045423
 20
-23285.13358439365
 10
-10383.11812094251
 20
-23285.22574747959
 10
-10382.90230063001
 20
-23285.40412272373
 10
-10382.76625326673
 20
-23285.65021647373
 10
-10382.71480063001
 20
-23285.9329007999
 10
-10382.71113852063
 20
-23286.11359537998
  0
LINE
  5
121
330
2
100
AcDbEntity
  8
Access .1
 48
0.0358993530273438
100
AcDbLine
 10
-10382.71113852063
 20
-23287.54956950108
 30
0.0
 11
-10382.71113852063
 21
-23286.11359537998
 31
0.0
  0
LINE
  5
122
330
2
100
AcDbEntity
  8
Access .1
 48
0.0102272033691406
100
AcDbLine
 10
-10382.71113852063
 20
-23294.66361369053
 30
0.0
 11
-10382.71113852063
 21
-23294.25452555577
 31
0.0
  0
LINE
  5
123
330
2
100
AcDbEntity
  8
Access .1
 48
0.0588943481445313
100
AcDbLine
 10
-10382.71113852063
 20
-23297.01938761631
 30
0.0
 11
-10382.71113852063
 21
-23294.66361369053
 31
0.0
  0
LINE
  5
124
330
2
100
AcDbEntity
  8
Access .1
 48
0.0588943481445313
100
AcDbLine
 10
-10382.71113852063
 20
-23294.66361369053
 30
0.0
 11
-10382.71113852063
 21
-23297.01938761631
 31
0.0
  0
LINE
  5
125
330
2
100
AcDbEntity
  8
Access .1
 48
0.0102272033691406
100
AcDbLine
 10
-10382.71113852063
 20
-23294.25452555577
 30
0.0
 11
-10382.71113852063
 21
-23294.66361369053
 31
0.0
  0
LINE
  5
126
330
2
100
AcDbEntity
  8
Access .1
 48
0.1676239013671875
100
AcDbLine
 10
-10382.71113852063
 20
-23294.25452555577
 30
0.0
 11
-10382.71113852063
 21
-23287.54956950108
 31
0.0
  0
LINE
  5
127
330
2
100
AcDbEntity
  8
Access .2
 48
0.0000616094275916
100
AcDbLine
 10
-10374.73372152845
 20
-23298.52439249912
 30
0.0
 11
-10374.7312801222
 21
-23298.52472819248
 31
0.0
  0
ARC
  5
128
330
2
100
AcDbEntity
  8
Access .2
100
AcDbCircle
 10
-12039.43013266126
 20
-23243.78727091709
 30
0.0
 40
1759.29296875
100
AcDbArc
 50
355.0760213560558
 51
356.4224771432492
  0
LWPOLYLINE
  5
129
330
2
100
AcDbEntity
  8
Access .2
100
AcDbPolyline
 90
        5
 70
     0
 43
0.0
 10
-10290.76521566907
 20
-23448.75202311436
 10
-10289.10536459485
 20
-23427.12467326084
 10
-10287.62123373548
 20
-23407.25373209873
 10
-10286.90327719251
 20
-23398.06427897373
 10
-10286.62965658704
 20
-23394.79425944248
  0
LINE
  5
12A
330
2
100
AcDbEntity
  8
Access .2
 48
0.0007432005424669
100
AcDbLine
 10
-10290.76759604017
 20
-23448.78165568271
 30
0.0
 11
-10290.76521566907
 21
-23448.75202311436
 31
0.0
  0
ARC
  5
12B
330
2
100
AcDbEntity
  8
Access .2
100
AcDbCircle
 10
-10291.45704916517
 20
-23351.56534708897
 30
0.0
 40
7.999998092651367
100
AcDbArc
 50
356.4773663072178
 51
90.00001616479492
  0
LINE
  5
12C
330
2
100
AcDbEntity
  8
Access .2
 48
0.0377838120977748
100
AcDbLine
 10
-10283.56569174329
 20
-23353.56534708897
 30
0.0
 11
-10283.47212484876
 21
-23352.05689371983
 31
0.0
  0
LWPOLYLINE
  5
12D
330
2
100
AcDbEntity
  8
Access .2
100
AcDbPolyline
 90
        6
 70
     0
 43
0.0
 10
-10288.1590144972
 20
-23320.64655436436
 10
-10287.31965902845
 20
-23321.85044230381
 10
-10286.71003988782
 20
-23322.92575968662
 10
-10286.15938070813
 20
-23324.14371622959
 10
-10285.65809896985
 20
-23325.5678190128
 10
-10285.4847591261
 20
-23326.16324747959
  0
LWPOLYLINE
  5
12E
330
2
100
AcDbEntity
  8
Access .2
100
AcDbPolyline
 90
        3
 70
     0
 43
0.0
 10
-10288.15968588392
 20
-23320.64566935459
 10
-10288.07533529798
 20
-23320.78312052647
 10
-10288.06929281751
 20
-23320.82920206944
  0
LWPOLYLINE
  5
12F
330
2
100
AcDbEntity
  8
Access .2
100
AcDbPolyline
 90
        3
 70
     0
 43
0.0
 10
-10290.21736410657
 20
-23318.41007365146
 10
-10289.02174643079
 20
-23319.61795939366
 10
-10288.15968588392
 20
-23320.64566935459
  0
LWPOLYLINE
  5
130
330
2
100
AcDbEntity
  8
Access .2
100
AcDbPolyline
 90
        6
 70
     0
 43
0.0
 10
-10296.85896566907
 20
-23313.94007243076
 10
-10294.72712973157
 20
-23315.1240323917
 10
-10293.01985434095
 20
-23316.20417155186
 10
-10291.67738607923
 20
-23317.17264689365
 10
-10290.59596518079
 20
-23318.06604899326
 10
-10290.22090414563
 20
-23318.40677775303
  0
LINE
  5
131
330
2
100
AcDbEntity
  8
Access .2
 48
0.025
100
AcDbLine
 10
-10285.08211020032
 20
-23329.66361369053
 30
0.0
 11
-10285.08211020032
 21
-23328.66361369053
 31
0.0
  0
LINE
  5
132
330
2
100
AcDbEntity
  8
Access .2
 48
0.0714508056640625
100
AcDbLine
 10
-10287.94014242689
 20
-23329.66361369053
 30
0.0
 11
-10285.08211020032
 21
-23329.66361369053
 31
0.0
  0
LWPOLYLINE
  5
133
330
2
100
AcDbEntity
  8
Access .2
100
AcDbPolyline
 90
       11
 70
     0
 43
0.0
 10
-10288.06929281751
 20
-23320.82920206944
 10
-10287.57454184095
 20
-23321.52308024326
 10
-10287.11732748548
 20
-23322.24106730381
 10
-10286.70723227063
 20
-23322.98056925694
 10
-10286.3426082472
 20
-23323.74350871006
 10
-10286.01771811048
 20
-23324.53412760655
 10
-10285.7322566847
 20
-23325.34168375889
 10
-10285.48482016126
 20
-23326.16349162022
 10
-10285.28029135267
 20
-23327.00013102452
 10
-10285.13820150892
 20
-23327.82868327061
 10
-10285.08211020032
 20
-23328.66361369053
  0
ARC
  5
134
330
2
100
AcDbEntity
  8
Access .1
  6
HIDDEN
100
AcDbCircle
 10
-10464.42514957772
 20
-22993.91948391675
 30
0.0
 40
203.7230521607085
100
AcDbArc
 50
269.3934022948225
 51
326.2359970898376
  0
LINE
  5
135
330
2
100
AcDbEntity
  8
Access .2
  6
Continuous
370
     5
100
AcDbLine
 10
-10625.34673747147
 20
-22828.97043427342
 30
0.0
 11
-10300.34673747147
 21
-22828.97043427342
 31
0.0
  0
LINE
  5
136
330
2
100
AcDbEntity
  8
Access .2
  6
Continuous
370
     5
100
AcDbLine
 10
-10300.34673747147
 20
-22658.97043427342
 30
0.0
 11
-10625.34673747147
 21
-22658.97043427342
 31
0.0
  0
LINE
  5
137
330
2
100
AcDbEntity
  8
Access .1
  6
HIDDEN
100
AcDbLine
 10
-10459.9374296158
 20
-22835.98695886039
 30
0.0
 11
-10445.88256482385
 21
-23196.14286915404
 31
0.0
  0
LINE
  5
138
330
2
100
AcDbEntity
  8
Access .1
  6
HIDDEN
100
AcDbLine
 10
-10465.8204893512
 20
-22835.98695886039
 30
0.0
 11
-10479.93679541033
 21
-23197.71730162568
 31
0.0
  0
ARC
  5
139
330
2
100
AcDbEntity
  8
Access .1
  6
HIDDEN
100
AcDbCircle
 10
-10474.42027103105
 20
-23017.78211042995
 30
0.0
 40
180.0197352288642
100
AcDbArc
 50
209.7619033467595
 51
272.4955301376118
  0
LINE
  5
13A
330
2
100
AcDbEntity
  8
Access .1
  6
HIDDEN
100
AcDbLine
 10
-10490.7789594835
 20
-23216.78189658643
 30
0.0
 11
-10435.38526091715
 21
-23216.78189658643
 31
0.0
  0
LINE
  5
13B
330
2
100
AcDbEntity
  8
Access .1
  6
HIDDEN
100
AcDbLine
 10
-10490.7789594835
 20
-23207.78189658643
 30
0.0
 11
-10490.7789594835
 21
-23283.16394938389
 31
0.0
  0
LINE
  5
13C
330
2
100
AcDbEntity
  8
Access .1
  6
HIDDEN
100
AcDbLine
 10
-10490.7789594835
 20
-23216.78189658643
 30
0.0
 11
-10490.7789594835
 21
-23197.09364497325
 31
0.0
  0
LINE
  5
13D
330
2
100
AcDbEntity
  8
Access .1
  6
HIDDEN
100
AcDbLine
 10
-10434.9789594835
 20
-23207.78189658643
 30
0.0
 11
-10434.9789594835
 21
-23283.16394938389
 31
0.0
  0
LINE
  5
13E
330
2
100
AcDbEntity
  8
Access .1
  6
HIDDEN
100
AcDbLine
 10
-10434.9789594835
 20
-23216.78189658643
 30
0.0
 11
-10434.9789594835
 21
-23195.02218972858
 31
0.0
  0
LINE
  5
13F
330
2
100
AcDbEntity
  8
Access .1
  6
HIDDEN
100
AcDbLine
 10
-10708.33321390973
 20
-22732.88261054814
 30
0.0
 11
-10705.0938277387
 21
-22852.09202164212
 31
0.0
  0
LINE
  5
140
330
2
100
AcDbEntity
  8
Access .1
  6
HIDDEN
100
AcDbLine
 10
-10687.40027468698
 20
-22725.09772642353
 30
0.0
 11
-10701.09456520643
 21
-22786.78189658643
 31
0.0
  0
LINE
  5
141
330
2
100
AcDbEntity
  8
Access .1
  6
HIDDEN
100
AcDbLine
 10
-10665.0441281831
 20
-22725.09772642353
 30
0.0
 11
-10665.0441281831
 21
-22786.78189658643
 31
0.0
  0
LINE
  5
142
330
2
100
AcDbEntity
  8
Access .2
  6
Continuous
370
     5
100
AcDbLine
 10
-10625.34673747147
 20
-22658.97043427342
 30
0.0
 11
-10625.34673747147
 21
-22828.97043427342
 31
0.0
  0
LINE
  5
143
330
2
100
AcDbEntity
  8
Access .1
  6
HIDDEN
100
AcDbLine
 10
-10713.73300675544
 20
-23168.78189658643
 30
0.0
 11
-10713.2833008338
 21
-22727.13628216813
 31
0.0
  0
LINE
  5
144
330
2
100
AcDbEntity
  8
Access .1
  6
HIDDEN
100
AcDbLine
 10
-10713.25442896304
 20
-23143.28189658643
 30
0.0
 11
-10699.1133350259
 21
-23144.60762414304
 31
0.0
  0
LINE
  5
145
330
2
100
AcDbEntity
  8
Access .1
  6
HIDDEN
100
AcDbLine
 10
-10698.84536826913
 20
-23150.93104714638
 30
0.0
 11
-10713.25442896304
 21
-23152.28189658643
 31
0.0
  0
LINE
  5
146
330
2
100
AcDbEntity
  8
Access .1
  6
HIDDEN
100
AcDbLine
 10
-10698.25442896304
 20
-23168.78189658643
 30
0.0
 11
-10713.73300675544
 21
-23168.78189658643
 31
0.0
  0
LINE
  5
147
330
2
100
AcDbEntity
  8
Access .1
  6
HIDDEN
100
AcDbLine
 10
-10713.25442896304
 20
-23168.78189658643
 30
0.0
 11
-10698.25442896304
 21
-23168.78189658643
 31
0.0
  0
LINE
  5
148
330
2
100
AcDbEntity
  8
Access .1
  6
HIDDEN
100
AcDbLine
 10
-10720.66236758984
 20
-23145.73708279518
 30
0.0
 11
-10704.36220227308
 21
-23145.73708279518
 31
0.0
  0
LINE
  5
149
330
2
100
AcDbEntity
  8
Access .1
  6
HIDDEN
100
AcDbLine
 10
-10721.11662204392
 20
-23110.78189658643
 30
0.0
 11
-10703.69427290808
 21
-23110.78189658643
 31
0.0
  0
LINE
  5
14A
330
2
100
AcDbEntity
  8
Access .1
  6
HIDDEN
100
AcDbLine
 10
-10705.0938277387
 20
-22852.09202164212
 30
0.0
 11
-10698.5187866028
 21
-23094.05353544338
 31
0.0
  0
LINE
  5
14B
330
2
100
AcDbEntity
  8
Access .1
  6
HIDDEN
100
AcDbLine
 10
-10702.8789594835
 20
-22786.78189658643
 30
0.0
 11
-10695.38098854887
 21
-23094.02586359685
 31
0.0
  0
LINE
  5
14C
330
2
100
AcDbEntity
  8
Access .1
  6
HIDDEN
100
AcDbLine
 10
-10650.51502609549
 20
-23121.04249371888
 30
0.0
 11
-10659.98690950338
 21
-23121.04249371888
 31
0.0
  0
LINE
  5
14D
330
2
100
AcDbEntity
  8
Access .1
  6
HIDDEN
100
AcDbLine
 10
-10678.32299760456
 20
-23115.78189658643
 30
0.0
 11
-10655.19799760456
 21
-23115.78189658643
 31
0.0
  0
ARC
  5
14E
330
2
100
AcDbEntity
  8
Access .1
  6
HIDDEN
100
AcDbCircle
 10
-10664.44799760456
 20
-23097.28189658643
 30
0.0
 40
18.49999999999997
100
AcDbArc
 50
240.0000000000573
 51
299.9999999999426
  0
LINE
  5
14F
330
2
100
AcDbEntity
  8
Access .1
  6
HIDDEN
100
AcDbLine
 10
-10650.51502609549
 20
-23121.04249371888
 30
0.0
 11
-10698.25442896304
 21
-23168.78189658644
 31
0.0
  0
LINE
  5
150
330
2
100
AcDbEntity
  8
Access .1
  6
HIDDEN
100
AcDbLine
 10
-10686.34722445759
 20
-23103.78189658643
 30
0.0
 11
-10636.94941777199
 21
-23103.78189658643
 31
0.0
  0
LINE
  5
151
330
2
100
AcDbEntity
  8
Access .1
  6
HIDDEN
100
AcDbLine
 10
-10683.94799760456
 20
-23109.28189658643
 30
0.0
 11
-10644.94799760456
 21
-23109.28189658643
 31
0.0
  0
LINE
  5
152
330
2
100
AcDbEntity
  8
Access .1
  6
HIDDEN
100
AcDbLine
 10
-10686.44799760456
 20
-23106.28189658643
 30
0.0
 11
-10642.44799760456
 21
-23106.28189658643
 31
0.0
  0
LINE
  5
153
330
2
100
AcDbEntity
  8
Access .1
  6
HIDDEN
100
AcDbLine
 10
-10688.52247666706
 20
-23103.78189658643
 30
0.0
 11
-10633.25442896304
 21
-23103.78189658643
 31
0.0
  0
ARC
  5
154
330
2
100
AcDbEntity
  8
Access .1
  6
HIDDEN
100
AcDbCircle
 10
-10678.32299760456
 20
-23110.22744782519
 30
0.0
 40
5.554448761245103
100
AcDbArc
 50
213.6264291360354
 51
326.3735708639646
  0
ARC
  5
155
330
2
100
AcDbEntity
  8
Access .1
  6
HIDDEN
100
AcDbCircle
 10
-10699.99562242074
 20
-23147.81240200022
 30
0.0
 40
3.324008447786698
100
AcDbArc
 50
290.2455562976231
 51
74.60756948035356
  0
ARC
  5
156
330
2
100
AcDbEntity
  8
Access .1
  6
HIDDEN
100
AcDbCircle
 10
-10688.52247666706
 20
-23093.78189658643
 30
0.0
 40
9.999999999999969
100
AcDbArc
 50
181.5565674712787
 51
270.0
  0
ARC
  5
157
330
2
100
AcDbEntity
  8
Access .1
  6
HIDDEN
100
AcDbCircle
 10
-10685.38396498694
 20
-23093.78189658643
 30
0.0
 40
10.00000000000033
100
AcDbArc
 50
181.3979667052613
 51
270.0
  0
LINE
  5
158
330
2
100
AcDbEntity
  8
Access .1
  6
HIDDEN
100
AcDbLine
 10
-10682.94799760456
 20
-23113.30336655645
 30
0.0
 11
-10682.94799760456
 21
-23109.28189658643
 31
0.0
  0
LINE
  5
159
330
2
100
AcDbEntity
  8
Access .1
  6
HIDDEN
100
AcDbLine
 10
-10683.94799760456
 20
-23109.28189658643
 30
0.0
 11
-10683.94799760456
 21
-23106.28189658643
 31
0.0
  0
LINE
  5
15A
330
2
100
AcDbEntity
  8
Access .1
  6
HIDDEN
100
AcDbLine
 10
-10686.44799760456
 20
-23106.28189658643
 30
0.0
 11
-10686.44799760456
 21
-23103.78189658643
 31
0.0
  0
LINE
  5
15B
330
2
100
AcDbEntity
  8
Access .1
  6
HIDDEN
100
AcDbLine
 10
-10673.69799760456
 20
-23113.30336655645
 30
0.0
 11
-10673.69799760456
 21
-23109.28189658643
 31
0.0
  0
LINE
  5
15C
330
2
100
AcDbEntity
  8
Access .1
  6
HIDDEN
100
AcDbLine
 10
-10664.44799760456
 20
-23122.35284083198
 30
0.0
 11
-10664.44799760456
 21
-23095.11940685407
 31
0.0
  0
ARC
  5
15D
330
2
100
AcDbEntity
  8
Access .1
  6
HIDDEN
100
AcDbCircle
 10
-10660.00538474857
 20
-23117.78722136643
 30
0.0
 40
3.255324779999913
100
AcDbArc
 50
141.9743828585088
 51
270.3251777715518
  0
ARC
  5
15E
330
2
100
AcDbEntity
  8
Access .1
  6
HIDDEN
100
AcDbCircle
 10
-10636.94941777199
 20
-23111.28189658643
 30
0.0
 40
7.50000000000061
100
AcDbArc
 50
33.49108497724071
 51
90.0
  0
LINE
  5
15F
330
2
100
AcDbEntity
  8
Access .1
  6
HIDDEN
100
AcDbLine
 10
-10647.06249594481
 20
-23114.53189658643
 30
0.0
 11
-10644.00442896304
 21
-23114.53189658643
 31
0.0
  0
LINE
  5
160
330
2
100
AcDbEntity
  8
Access .1
  6
HIDDEN
100
AcDbLine
 10
-10655.19799760456
 20
-23115.78189658643
 30
0.0
 11
-10650.57299760456
 21
-23115.78189658643
 31
0.0
  0
ARC
  5
161
330
2
100
AcDbEntity
  8
Access .1
  6
HIDDEN
100
AcDbCircle
 10
-10650.57299760456
 20
-23110.22744782519
 30
0.0
 40
5.554448761245103
100
AcDbArc
 50
213.6264291360354
 51
326.3735708639646
  0
LINE
  5
162
330
2
100
AcDbEntity
  8
Access .1
  6
HIDDEN
100
AcDbLine
 10
-10655.19799760456
 20
-23113.30336655645
 30
0.0
 11
-10655.19799760456
 21
-23109.28189658643
 31
0.0
  0
LINE
  5
163
330
2
100
AcDbEntity
  8
Access .1
  6
HIDDEN
100
AcDbLine
 10
-10645.94799760456
 20
-23113.30336655645
 30
0.0
 11
-10645.94799760456
 21
-23109.28189658643
 31
0.0
  0
LINE
  5
164
330
2
100
AcDbEntity
  8
Access .1
  6
HIDDEN
100
AcDbLine
 10
-10644.94799760456
 20
-23109.28189658643
 30
0.0
 11
-10644.94799760456
 21
-23106.28189658643
 31
0.0
  0
LINE
  5
165
330
2
100
AcDbEntity
  8
Access .1
  6
HIDDEN
100
AcDbLine
 10
-10633.25442896304
 20
-23103.78189658643
 30
0.0
 11
-10644.00442896304
 21
-23114.53189658643
 31
0.0
  0
LINE
  5
166
330
2
100
AcDbEntity
  8
Access .1
  6
HIDDEN
100
AcDbLine
 10
-10642.44799760456
 20
-23106.28189658643
 30
0.0
 11
-10642.44799760456
 21
-23103.78189658643
 31
0.0
  0
LINE
  5
167
330
2
100
AcDbEntity
  8
Access .1
  6
HIDDEN
100
AcDbLine
 10
-10625.34673747147
 20
-22786.78189658643
 30
0.0
 11
-10702.8789594835
 21
-22786.78189658643
 31
0.0
  0
LINE
  5
168
330
2
100
AcDbEntity
  8
Access .1
  6
HIDDEN
100
AcDbLine
 10
-10713.73303981695
 20
-22727.13628216813
 30
0.0
 11
-10698.81640837994
 21
-22727.13628216813
 31
0.0
  0
LINE
  5
169
330
2
100
AcDbEntity
  8
Access .1
  6
HIDDEN
100
AcDbLine
 10
-10698.81640837994
 20
-22734.0810906348
 30
0.0
 11
-10708.33321390973
 21
-22732.88261054814
 31
0.0
  0
LINE
  5
16A
330
2
100
AcDbEntity
  8
Access .1
  6
HIDDEN
100
AcDbLine
 10
-10713.50822375882
 20
-22725.09772642353
 30
0.0
 11
-10625.12192141334
 21
-22725.09772642353
 31
0.0
  0
LINE
  5
16B
330
2
100
AcDbEntity
  8
Access .1
  6
HIDDEN
100
AcDbLine
 10
-10698.81640837994
 20
-22727.13628216813
 30
0.0
 11
-10698.81640837994
 21
-22734.0810906348
 31
0.0
  0
CIRCLE
  5
16C
330
2
100
AcDbEntity
  8
Access .2
  6
Continuous
370
     5
100
AcDbCircle
 10
-10432.30828085197
 20
-22743.97043427342
 30
0.0
 40
18.3064680472653
  0
CIRCLE
  5
16D
330
2
100
AcDbEntity
  8
Access .2
  6
Continuous
370
     5
100
AcDbCircle
 10
-10432.30828085197
 20
-22743.97043427342
 30
0.0
 40
17.3064680472653
  0
CIRCLE
  5
16E
330
2
100
AcDbEntity
  8
Access .2
  6
Continuous
370
     5
100
AcDbCircle
 10
-10493.38519409096
 20
-22743.97043427342
 30
0.0
 40
18.3064680472653
  0
CIRCLE
  5
16F
330
2
100
AcDbEntity
  8
Access .2
  6
Continuous
370
     5
100
AcDbCircle
 10
-10493.38519409096
 20
-22743.97043427342
 30
0.0
 40
17.3064680472653
  0
LINE
  5
170
330
2
100
AcDbEntity
  8
Access .2
  6
Continuous
370
     5
100
AcDbLine
 10
-10506.5976824452
 20
-22743.97043427342
 30
0.0
 11
-10481.07469599659
 21
-22743.97043427342
 31
0.0
  0
LINE
  5
171
330
2
100
AcDbEntity
  8
Access .1
  6
HIDDEN
100
AcDbLine
 10
-10562.91583083897
 20
-23050.75638580857
 30
0.0
 11
-10549.24141561536
 21
-23050.75638580857
 31
0.0
  0
LINE
  5
172
330
2
100
AcDbEntity
  8
Access .1
  6
HIDDEN
100
AcDbLine
 10
-10562.91583083897
 20
-23050.75638580857
 30
0.0
 11
-10567.1564896938
 21
-23172.192966862
 31
0.0
  0
LINE
  5
173
330
2
100
AcDbEntity
  8
Access .1
  6
HIDDEN
100
AcDbLine
 10
-10544.63154954434
 20
-23182.76567821854
 30
0.0
 11
-10549.24141561536
 21
-23050.75638580857
 31
0.0
  0
LINE
  5
174
330
2
100
AcDbEntity
  8
Access .2
  6
Continuous
370
     5
100
AcDbLine
 10
-10300.34673747147
 20
-22828.97043427342
 30
0.0
 11
-10300.34673747147
 21
-22658.97043427342
 31
0.0
  0
LINE
  5
175
330
2
100
AcDbEntity
  8
Access .1
  6
HIDDEN
100
AcDbLine
 10
-10217.4163181466
 20
-22732.57397223582
 30
0.0
 11
-10220.66409122829
 21
-22852.09202164212
 31
0.0
  0
LINE
  5
176
330
2
100
AcDbEntity
  8
Access .1
  6
HIDDEN
100
AcDbLine
 10
-10260.7137907839
 20
-22725.09772642353
 30
0.0
 11
-10260.7137907839
 21
-22786.78189658643
 31
0.0
  0
LINE
  5
177
330
2
100
AcDbEntity
  8
Access .1
  6
HIDDEN
100
AcDbLine
 10
-10238.35764428002
 20
-22725.09772642353
 30
0.0
 11
-10224.66335376057
 21
-22786.78189658643
 31
0.0
  0
LINE
  5
178
330
2
100
AcDbEntity
  8
Access .1
  6
HIDDEN
100
AcDbLine
 10
-10212.02491221156
 20
-23168.78189658643
 30
0.0
 11
-10212.4746181332
 21
-22727.13628216813
 31
0.0
  0
LINE
  5
179
330
2
100
AcDbEntity
  8
Access .1
  6
HIDDEN
100
AcDbLine
 10
-10388.30470085078
 20
-23182.76567821854
 30
0.0
 11
-10383.69483477976
 21
-23050.75638580857
 31
0.0
  0
LINE
  5
17A
330
2
100
AcDbEntity
  8
Access .1
  6
HIDDEN
100
AcDbLine
 10
-10370.02041955614
 20
-23050.75638580857
 30
0.0
 11
-10365.77976070131
 21
-23172.192966862
 31
0.0
  0
LINE
  5
17B
330
2
100
AcDbEntity
  8
Access .1
  6
HIDDEN
100
AcDbLine
 10
-10383.69483477976
 20
-23050.75638580857
 30
0.0
 11
-10370.02041955614
 21
-23050.75638580857
 31
0.0
  0
LINE
  5
17C
330
2
100
AcDbEntity
  8
Access .1
  6
HIDDEN
100
AcDbLine
 10
-10220.66409122829
 20
-22852.09202164212
 30
0.0
 11
-10227.2391323642
 21
-23094.05353544338
 31
0.0
  0
LINE
  5
17D
330
2
100
AcDbEntity
  8
Access .1
  6
HIDDEN
100
AcDbLine
 10
-10230.37693041813
 20
-23094.02586359685
 30
0.0
 11
-10222.8789594835
 21
-22786.78189658643
 31
0.0
  0
LINE
  5
17E
330
2
100
AcDbEntity
  8
Access .1
  6
HIDDEN
100
AcDbLine
 10
-10247.43492136244
 20
-23115.78189658643
 30
0.0
 11
-10270.55992136244
 21
-23115.78189658643
 31
0.0
  0
ARC
  5
17F
330
2
100
AcDbEntity
  8
Access .1
  6
HIDDEN
100
AcDbCircle
 10
-10261.30992136244
 20
-23097.28189658643
 30
0.0
 40
18.49999999999997
100
AcDbArc
 50
240.0000000000573
 51
299.9999999999426
  0
LINE
  5
180
330
2
100
AcDbEntity
  8
Access .1
  6
HIDDEN
100
AcDbLine
 10
-10275.24289287151
 20
-23121.04249371888
 30
0.0
 11
-10227.50349000395
 21
-23168.78189658644
 31
0.0
  0
LINE
  5
181
330
2
100
AcDbEntity
  8
Access .1
  6
HIDDEN
100
AcDbLine
 10
-10237.23544229994
 20
-23103.78189658643
 30
0.0
 11
-10292.50349000395
 21
-23103.78189658643
 31
0.0
  0
LINE
  5
182
330
2
100
AcDbEntity
  8
Access .1
  6
HIDDEN
100
AcDbLine
 10
-10239.30992136244
 20
-23106.28189658643
 30
0.0
 11
-10283.30992136244
 21
-23106.28189658643
 31
0.0
  0
LINE
  5
183
330
2
100
AcDbEntity
  8
Access .1
  6
HIDDEN
100
AcDbLine
 10
-10288.80850119501
 20
-23103.78189658643
 30
0.0
 11
-10240.37395398006
 21
-23103.78189658643
 31
0.0
  0
LINE
  5
184
330
2
100
AcDbEntity
  8
Access .1
  6
HIDDEN
100
AcDbLine
 10
-10241.80992136244
 20
-23109.28189658643
 30
0.0
 11
-10280.80992136244
 21
-23109.28189658643
 31
0.0
  0
ARC
  5
185
330
2
100
AcDbEntity
  8
Access .1
  6
HIDDEN
100
AcDbCircle
 10
-10275.18492136244
 20
-23110.22744782519
 30
0.0
 40
5.554448761245103
100
AcDbArc
 50
213.6264291360354
 51
326.3735708639646
  0
ARC
  5
186
330
2
100
AcDbEntity
  8
Access .1
  6
HIDDEN
100
AcDbCircle
 10
-10288.80850119501
 20
-23111.28189658643
 30
0.0
 40
7.5
100
AcDbArc
 50
90.0
 51
146.5089150227593
  0
LINE
  5
187
330
2
100
AcDbEntity
  8
Access .1
  6
HIDDEN
100
AcDbLine
 10
-10292.50349000395
 20
-23103.78189658643
 30
0.0
 11
-10281.75349000395
 21
-23114.53189658643
 31
0.0
  0
LINE
  5
188
330
2
100
AcDbEntity
  8
Access .1
  6
HIDDEN
100
AcDbLine
 10
-10280.80992136244
 20
-23109.28189658643
 30
0.0
 11
-10280.80992136244
 21
-23106.28189658643
 31
0.0
  0
LINE
  5
189
330
2
100
AcDbEntity
  8
Access .1
  6
HIDDEN
100
AcDbLine
 10
-10279.80992136244
 20
-23113.30336655645
 30
0.0
 11
-10279.80992136244
 21
-23109.28189658643
 31
0.0
  0
LINE
  5
18A
330
2
100
AcDbEntity
  8
Access .1
  6
HIDDEN
100
AcDbLine
 10
-10278.69542302219
 20
-23114.53189658643
 30
0.0
 11
-10281.75349000395
 21
-23114.53189658643
 31
0.0
  0
LINE
  5
18B
330
2
100
AcDbEntity
  8
Access .1
  6
HIDDEN
100
AcDbLine
 10
-10283.30992136244
 20
-23106.28189658643
 30
0.0
 11
-10283.30992136244
 21
-23103.78189658643
 31
0.0
  0
ARC
  5
18C
330
2
100
AcDbEntity
  8
Access .1
  6
HIDDEN
100
AcDbCircle
 10
-10265.75253421843
 20
-23117.78722136643
 30
0.0
 40
3.255324780000227
100
AcDbArc
 50
269.6748222284483
 51
38.02561714149117
  0
LINE
  5
18D
330
2
100
AcDbEntity
  8
Access .1
  6
HIDDEN
100
AcDbLine
 10
-10275.24289287151
 20
-23121.04249371888
 30
0.0
 11
-10265.77100946362
 21
-23121.04249371888
 31
0.0
  0
LINE
  5
18E
330
2
100
AcDbEntity
  8
Access .1
  6
HIDDEN
100
AcDbLine
 10
-10270.55992136244
 20
-23115.78189658643
 30
0.0
 11
-10275.18492136244
 21
-23115.78189658643
 31
0.0
  0
LINE
  5
18F
330
2
100
AcDbEntity
  8
Access .1
  6
HIDDEN
100
AcDbLine
 10
-10270.55992136244
 20
-23113.30336655645
 30
0.0
 11
-10270.55992136244
 21
-23109.28189658643
 31
0.0
  0
LINE
  5
190
330
2
100
AcDbEntity
  8
Access .1
  6
HIDDEN
100
AcDbLine
 10
-10261.24165545782
 20
-23122.35284083198
 30
0.0
 11
-10261.24165545782
 21
-23095.11940685407
 31
0.0
  0
ARC
  5
191
330
2
100
AcDbEntity
  8
Access .1
  6
HIDDEN
100
AcDbCircle
 10
-10225.76229654626
 20
-23147.81240200022
 30
0.0
 40
3.324008447786228
100
AcDbArc
 50
105.3924305196464
 51
249.7544437023769
  0
ARC
  5
192
330
2
100
AcDbEntity
  8
Access .1
  6
HIDDEN
100
AcDbCircle
 10
-10237.23544229994
 20
-23093.78189658643
 30
0.0
 40
10.0
100
AcDbArc
 50
270.0
 51
358.4434325287213
  0
ARC
  5
193
330
2
100
AcDbEntity
  8
Access .1
  6
HIDDEN
100
AcDbCircle
 10
-10240.37395398006
 20
-23093.78189658643
 30
0.0
 40
10.0
100
AcDbArc
 50
270.0
 51
358.6020332947386
  0
ARC
  5
194
330
2
100
AcDbEntity
  8
Access .1
  6
HIDDEN
100
AcDbCircle
 10
-10247.43492136244
 20
-23110.22744782519
 30
0.0
 40
5.554448761245103
100
AcDbArc
 50
213.6264291360354
 51
326.3735708639646
  0
LINE
  5
195
330
2
100
AcDbEntity
  8
Access .1
  6
HIDDEN
100
AcDbLine
 10
-10252.05992136244
 20
-23113.30336655645
 30
0.0
 11
-10252.05992136244
 21
-23109.28189658643
 31
0.0
  0
LINE
  5
196
330
2
100
AcDbEntity
  8
Access .1
  6
HIDDEN
100
AcDbLine
 10
-10241.80992136244
 20
-23109.28189658643
 30
0.0
 11
-10241.80992136244
 21
-23106.28189658643
 31
0.0
  0
LINE
  5
197
330
2
100
AcDbEntity
  8
Access .1
  6
HIDDEN
100
AcDbLine
 10
-10242.80992136244
 20
-23113.30336655645
 30
0.0
 11
-10242.80992136244
 21
-23109.28189658643
 31
0.0
  0
LINE
  5
198
330
2
100
AcDbEntity
  8
Access .1
  6
HIDDEN
100
AcDbLine
 10
-10239.30992136244
 20
-23106.28189658643
 30
0.0
 11
-10239.30992136244
 21
-23103.78189658643
 31
0.0
  0
LINE
  5
199
330
2
100
AcDbEntity
  8
Access .1
  6
HIDDEN
100
AcDbLine
 10
-10212.50349000395
 20
-23143.28189658643
 30
0.0
 11
-10226.6445839411
 21
-23144.60762414304
 31
0.0
  0
LINE
  5
19A
330
2
100
AcDbEntity
  8
Access .1
  6
HIDDEN
100
AcDbLine
 10
-10226.91255069787
 20
-23150.93104714638
 30
0.0
 11
-10212.50349000395
 21
-23152.28189658643
 31
0.0
  0
LINE
  5
19B
330
2
100
AcDbEntity
  8
Access .1
  6
HIDDEN
100
AcDbLine
 10
-10227.50349000395
 20
-23168.78189658643
 30
0.0
 11
-10212.02491221156
 21
-23168.78189658643
 31
0.0
  0
LINE
  5
19C
330
2
100
AcDbEntity
  8
Access .1
  6
HIDDEN
100
AcDbLine
 10
-10212.50349000395
 20
-23168.78189658643
 30
0.0
 11
-10227.50349000395
 21
-23168.78189658643
 31
0.0
  0
LINE
  5
19D
330
2
100
AcDbEntity
  8
Access .1
  6
HIDDEN
100
AcDbLine
 10
-10205.09555137716
 20
-23145.73708279518
 30
0.0
 11
-10221.39571669392
 21
-23145.73708279518
 31
0.0
  0
LINE
  5
19E
330
2
100
AcDbEntity
  8
Access .1
  6
HIDDEN
100
AcDbLine
 10
-10204.64129692307
 20
-23110.78189658643
 30
0.0
 11
-10222.06364605892
 21
-23110.78189658643
 31
0.0
  0
LINE
  5
19F
330
2
100
AcDbEntity
  8
Access .1
  6
HIDDEN
100
AcDbLine
 10
-10222.8789594835
 20
-22786.78189658643
 30
0.0
 11
-10300.34673747147
 21
-22786.78189658643
 31
0.0
  0
LINE
  5
1A0
330
2
100
AcDbEntity
  8
Access .1
  6
HIDDEN
100
AcDbLine
 10
-10300.12192141334
 20
-22725.09772642353
 30
0.0
 11
-10211.80009615343
 21
-22725.09772642353
 31
0.0
  0
LINE
  5
1A1
330
2
100
AcDbEntity
  8
Access .1
  6
HIDDEN
100
AcDbLine
 10
-10229.38393686065
 20
-22734.0810906348
 30
0.0
 11
-10217.4163181466
 21
-22732.57397223582
 31
0.0
  0
LINE
  5
1A2
330
2
100
AcDbEntity
  8
Access .1
  6
HIDDEN
100
AcDbLine
 10
-10212.4746181332
 20
-22727.13628216813
 30
0.0
 11
-10229.38393686065
 21
-22727.13628216813
 31
0.0
  0
LINE
  5
1A3
330
2
100
AcDbEntity
  8
Access .1
  6
HIDDEN
100
AcDbLine
 10
-10229.38393686065
 20
-22727.13628216813
 30
0.0
 11
-10229.38393686065
 21
-22734.0810906348
 31
0.0
  0
ENDSEC
  0
SECTION
  2
OBJECTS
  0
DICTIONARY
  5
9
330
0
100
AcDbDictionary
281
     1
  3
ACAD_COLOR
350
3B
  3
ACAD_GROUP
350
36
  3
ACAD_LAYOUT
350
F
  3
ACAD_MATERIAL
350
B
  3
ACAD_MLINESTYLE
350
37
  3
ACAD_PLOTSETTINGS
350
38
  3
ACAD_PLOTSTYLENAME
350
8
  3
ACAD_TABLESTYLE
350
3C
  3
ACAD_VISUALSTYLE
350
28
  3
AcDbVariableDictionary
350
1BB
  0
DICTIONARY
  5
29
330
25
100
AcDbDictionary
280
     1
281
     1
  0
DICTIONARY
  5
18
330
17
100
AcDbDictionary
280
     1
281
     1
  3
ACAD_LAYERFILTERS
360
19
  3
ACAD_LAYERSTATES
360
1A
  3
ACLYDICTIONARY
360
1B
  0
DICTIONARY
  5
3
330
2
100
AcDbDictionary
280
     1
281
     1
  3
ACAD_SORTENTS
360
1A4
  0
DICTIONARY
  5
3B
102
{ACAD_REACTORS
330
9
102
}
330
9
100
AcDbDictionary
281
     1
  0
DICTIONARY
  5
36
102
{ACAD_REACTORS
330
9
102
}
330
9
100
AcDbDictionary
281
     1
  0
DICTIONARY
  5
F
102
{ACAD_REACTORS
330
9
102
}
330
9
100
AcDbDictionary
281
     1
  3
Layout1
350
14
  3
Model
350
E
  0
DICTIONARY
  5
B
102
{ACAD_REACTORS
330
9
102
}
330
9
100
AcDbDictionary
281
     1
  3
ByBlock
350
3A
  3
ByLayer
350
39
  3
Global
350
A
  0
DICTIONARY
  5
37
102
{ACAD_REACTORS
330
9
102
}
330
9
100
AcDbDictionary
281
     1
  3
Standard
350
3F
  0
DICTIONARY
  5
38
102
{ACAD_REACTORS
330
9
102
}
330
9
100
AcDbDictionary
281
     1
  0
ACDBDICTIONARYWDFLT
  5
8
102
{ACAD_REACTORS
330
9
102
}
330
9
100
AcDbDictionary
281
     1
  3
Normal
350
7
100
AcDbDictionaryWithDefault
340
7
  0
DICTIONARY
  5
3C
102
{ACAD_REACTORS
330
9
102
}
330
9
100
AcDbDictionary
281
     1
  3
Standard
350
40
  0
DICTIONARY
  5
28
102
{ACAD_REACTORS
330
9
102
}
330
9
100
AcDbDictionary
281
     1
  3
2dWireframe
350
27
  3
3D Hidden
350
1C3
  3
3dWireframe
350
42
  3
Basic
350
1C2
  3
Brighten
350
1C6
  3
ColorChange
350
1CA
  3
Conceptual
350
1C4
  3
Dim
350
1C5
  3
Facepattern
350
1C9
  3
Flat
350
1BE
  3
FlatWithEdges
350
1BF
  3
Gouraud
350
1C0
  3
GouraudWithEdges
350
1C1
  3
Linepattern
350
1C8
  3
Realistic
350
41
  3
Thicken
350
1C7
  0
DICTIONARY
  5
1BB
102
{ACAD_REACTORS
330
9
102
}
330
9
100
AcDbDictionary
281
     1
  3
CTABLESTYLE
350
1BC
  0
DICTIONARY
  5
19
102
{ACAD_REACTORS
330
18
102
}
330
18
100
AcDbDictionary
281
     1
  0
DICTIONARY
  5
1A
102
{ACAD_REACTORS
330
18
102
}
330
18
100
AcDbDictionary
281
     1
  0
DICTIONARY
  5
1B
102
{ACAD_REACTORS
330
18
102
}
330
18
100
AcDbDictionary
281
     1
1001
ACAD
1000
<All
  0
SORTENTSTABLE
  5
1A4
102
{ACAD_REACTORS
330
3
102
}
330
3
100
AcDbSortentsTable
330
2
  0
LAYOUT
  5
14
102
{ACAD_XDICTIONARY
360
15
102
}
102
{ACAD_REACTORS
330
F
102
}
330
F
100
AcDbPlotSettings
  1

  2
none_device
  4
ISO_A4_(210.00_x_297.00_MM)
  6

 40
7.5
 41
20.0
 42
7.5
 43
20.0
 44
210.0
 45
297.0
 46
0.0
 47
0.0
 48
0.0
 49
0.0
140
0.0
141
0.0
142
1.0
143
1.0
 70
   688
 72
     1
 73
     1
 74
     5
  7
LCG Normal.ctb
 75
    16
147
1.0
 76
     0
 77
     2
 78
   300
148
0.0
149
0.0
100
AcDbLayout
  1
Layout1
 70
     1
 71
     1
 10
-20.0
 20
-7.5
 11
277.0
 21
202.5
 12
0.0
 22
0.0
 32
0.0
 14
25.69999999999999
 24
19.5
 34
0.0
 15
231.3
 25
175.5
 35
0.0
146
0.0
 13
0.0
 23
0.0
 33
0.0
 16
1.0
 26
0.0
 36
0.0
 17
0.0
 27
1.0
 37
0.0
 76
     0
330
11
1001
ACAD_PSEXT
1000
None
1000
None
1000
Not applicable
1000
The layout will not be plotted unless a new plotter configuration name is selected.
1070
     0
  0
LAYOUT
  5
E
102
{ACAD_REACTORS
330
F
102
}
330
F
100
AcDbPlotSettings
  1

  2
Adobe PDF
  4
A4
  6

 40
3.174999952316284
 41
3.174999952316284
 42
3.175003051757812
 43
3.17498779296875
 44
209.9733276367187
 45
297.0318298339844
 46
45.09055967764598
 47
71.64969122651346
 48
4459.497861080963
 49
1641.385426523477
140
6605.242672745349
141
4249.506158453842
142
1.0
143
10.0
 70
 11940
 72
     1
 73
     0
 74
     1
  7
LCG Normal.ctb
 75
     0
147
0.1794952100365202
 76
     0
 77
     2
 78
   300
148
10913.49894812502
149
23911.40047760646
100
AcDbLayout
  1
Model
 70
     1
 71
     0
 10
0.0
 20
0.0
 11
12.0
 21
9.0
 12
0.0
 22
0.0
 32
0.0
 14
0.0
 24
0.0
 34
0.0
 15
0.0
 25
0.0
 35
0.0
146
0.0
 13
0.0
 23
0.0
 33
0.0
 16
1.0
 26
0.0
 36
0.0
 17
0.0
 27
1.0
 37
0.0
 76
     0
330
2
331
26
1001
ACAD_PSEXT
1000
Adobe PDF
1000
Adobe PDF Converter
1000
Documents\*.pdf
1000

1070
     0
  0
MATERIAL
  5
3A
102
{ACAD_REACTORS
330
B
102
}
330
B
100
AcDbMaterial
  1
ByBlock
  0
MATERIAL
  5
39
102
{ACAD_REACTORS
330
B
102
}
330
B
100
AcDbMaterial
  1
ByLayer
  0
MATERIAL
  5
A
102
{ACAD_REACTORS
330
B
102
}
330
B
100
AcDbMaterial
  1
Global
  0
MLINESTYLE
  5
3F
102
{ACAD_REACTORS
330
37
102
}
330
37
100
AcDbMlineStyle
  2
STANDARD
 70
     0
  3

 62
   256
 51
90.0
 52
90.0
 71
     2
 49
0.5
 62
   256
  6
BYLAYER
 49
-0.5
 62
   256
  6
BYLAYER
  0
ACDBPLACEHOLDER
  5
7
102
{ACAD_REACTORS
330
8
102
}
330
8
  0
TABLESTYLE
  5
40
102
{ACAD_REACTORS
330
3C
102
}
330
3C
100
AcDbTableStyle
  3
Standard
 70
     0
 71
     0
 40
1.5
 41
1.5
280
     0
281
     0
  7
Standard
140
4.5
170
     2
 62
     0
 63
     7
283
     0
 90
        4
 91
        0
  1

274
    -2
284
     1
 64
     0
275
    -2
285
     1
 65
     0
276
    -2
286
     1
 66
     0
277
    -2
287
     1
 67
     0
278
    -2
288
     1
 68
     0
279
    -2
289
     1
 69
     0
  7
Standard
140
6.0
170
     5
 62
     0
 63
     7
283
     0
 90
        4
 91
        0
  1

274
    -2
284
     1
 64
     0
275
    -2
285
     1
 65
     0
276
    -2
286
     1
 66
     0
277
    -2
287
     1
 67
     0
278
    -2
288
     1
 68
     0
279
    -2
289
     1
 69
     0
  7
Standard
140
4.5
170
     5
 62
     0
 63
     7
283
     0
 90
        4
 91
        0
  1

274
    -2
284
     1
 64
     0
275
    -2
285
     1
 65
     0
276
    -2
286
     1
 66
     0
277
    -2
287
     1
 67
     0
278
    -2
288
     1
 68
     0
279
    -2
289
     1
 69
     0
  0
VISUALSTYLE
  5
27
102
{ACAD_REACTORS
330
28
102
}
330
28
100
AcDbVisualStyle
  2
2dWireframe
 70
     4
 71
     0
 72
     2
 73
     0
 90
        0
 40
-0.6
 41
-30.0
 62
     5
 63
     7
421
 16777215
 74
     1
 91
        4
 64
     7
 65
   257
 75
     1
175
     1
 42
1.0
 92
        0
 66
   257
 43
1.0
 76
     1
 77
     6
 78
     2
 67
     7
 79
     5
170
     0
171
     0
290
     0
174
     0
 93
        1
 44
0.0
173
     0
291
     0
 45
0.0
  0
VISUALSTYLE
  5
1C3
102
{ACAD_REACTORS
330
28
102
}
330
28
100
AcDbVisualStyle
  2
3D Hidden
 70
     6
 71
     1
 72
     2
 73
     2
 90
        0
 40
-0.6
 41
-30.0
 62
     5
 63
     7
421
 16777215
 74
     2
 91
        2
 64
     7
 65
   257
 75
     2
175
     1
 42
40.0
 92
        0
 66
   257
 43
1.0
 76
     1
 77
     6
 78
     2
 67
     7
 79
     3
170
     0
171
     0
290
     0
174
     0
 93
        1
 44
0.0
173
     0
291
     0
 45
0.0
  0
VISUALSTYLE
  5
42
102
{ACAD_REACTORS
330
28
102
}
330
28
100
AcDbVisualStyle
  2
3dWireframe
 70
     5
 71
     0
 72
     2
 73
     0
 90
        0
 40
-0.6
 41
-30.0
 62
     5
 63
     7
421
 16777215
 74
     1
 91
        4
 64
     7
 65
   257
 75
     1
175
     1
 42
1.0
 92
        0
 66
   257
 43
1.0
 76
     1
 77
     6
 78
     2
 67
     7
 79
     5
170
     0
171
     0
290
     0
174
     0
 93
        1
 44
0.0
173
     0
291
     0
 45
0.0
  0
VISUALSTYLE
  5
1C2
102
{ACAD_REACTORS
330
28
102
}
330
28
100
AcDbVisualStyle
  2
Basic
 70
     7
 71
     1
 72
     0
 73
     1
 90
        0
 40
-0.6
 41
-30.0
 62
     5
 63
     7
421
 16777215
 74
     0
 91
        4
 64
     7
 65
   257
 75
     1
175
     1
 42
1.0
 92
        8
 66
     7
 43
1.0
 76
     1
 77
     6
 78
     2
 67
     7
 79
     5
170
     0
171
     0
290
     0
174
     0
 93
        1
 44
0.0
173
     0
291
     1
 45
0.0
  0
VISUALSTYLE
  5
1C6
102
{ACAD_REACTORS
330
28
102
}
330
28
100
AcDbVisualStyle
  2
Brighten
 70
    12
 71
     2
 72
     2
 73
     0
 90
        0
 40
-0.6
 41
-30.0
 62
     5
 63
     7
421
 16777215
 74
     1
 91
        4
 64
     7
 65
   257
 75
     1
175
     1
 42
1.0
 92
        8
 66
     7
 43
1.0
 76
     1
 77
     6
 78
     2
 67
     7
 79
     5
170
     0
171
     0
290
     0
174
     0
 93
        1
 44
50.0
173
     0
291
     1
 45
0.0
  0
VISUALSTYLE
  5
1CA
102
{ACAD_REACTORS
330
28
102
}
330
28
100
AcDbVisualStyle
  2
ColorChange
 70
    16
 71
     2
 72
     2
 73
     3
 90
        0
 40
-0.6
 41
-30.0
 62
     5
 63
     8
421
  8421504
 74
     1
 91
        4
 64
     7
 65
   257
 75
     1
175
     1
 42
1.0
 92
        8
 66
     8
424
  8421504
 43
1.0
 76
     1
 77
     6
 78
     2
 67
     7
 79
     5
170
     0
171
     0
290
     0
174
     0
 93
        1
 44
0.0
173
     0
291
     1
 45
0.0
  0
VISUALSTYLE
  5
1C4
102
{ACAD_REACTORS
330
28
102
}
330
28
100
AcDbVisualStyle
  2
Conceptual
 70
     9
 71
     3
 72
     2
 73
     0
 90
        0
 40
-0.6
 41
-30.0
 62
     5
 63
     7
421
 16777215
 74
     2
 91
        2
 64
     7
 65
   257
 75
     1
175
     1
 42
40.0
 92
        8
 66
     7
 43
1.0
 76
     1
 77
     6
 78
     2
 67
     7
 79
     3
170
     0
171
     0
290
     0
174
     0
 93
        1
 44
0.0
173
     0
291
     0
 45
0.0
  0
VISUALSTYLE
  5
1C5
102
{ACAD_REACTORS
330
28
102
}
330
28
100
AcDbVisualStyle
  2
Dim
 70
    11
 71
     2
 72
     2
 73
     0
 90
        0
 40
-0.6
 41
-30.0
 62
     5
 63
     7
421
 16777215
 74
     1
 91
        4
 64
     7
 65
   257
 75
     1
175
     1
 42
1.0
 92
        8
 66
     7
 43
1.0
 76
     1
 77
     6
 78
     2
 67
     7
 79
     5
170
     0
171
     0
290
     0
174
     0
 93
        1
 44
-50.0
173
     0
291
     1
 45
0.0
  0
VISUALSTYLE
  5
1C9
102
{ACAD_REACTORS
330
28
102
}
330
28
100
AcDbVisualStyle
  2
Facepattern
 70
    15
 71
     2
 72
     2
 73
     0
 90
        0
 40
-0.6
 41
-30.0
 62
     5
 63
     7
421
 16777215
 74
     1
 91
        4
 64
     7
 65
   257
 75
     1
175
     1
 42
1.0
 92
        8
 66
     7
 43
1.0
 76
     1
 77
     6
 78
     2
 67
     7
 79
     5
170
     0
171
     0
290
     0
174
     0
 93
        1
 44
0.0
173
     0
291
     1
 45
0.0
  0
VISUALSTYLE
  5
1BE
102
{ACAD_REACTORS
330
28
102
}
330
28
100
AcDbVisualStyle
  2
Flat
 70
     0
 71
     2
 72
     1
 73
     1
 90
        2
 40
-0.6
 41
30.0
 62
     5
 63
     7
421
 16777215
 74
     0
 91
        4
 64
     7
 65
   257
 75
     1
175
     1
 42
1.0
 92
        8
 66
     7
 43
1.0
 76
     1
 77
     6
 78
     2
 67
     7
 79
     5
170
     0
171
     0
290
     0
174
     0
 93
       13
 44
0.0
173
     0
291
     1
 45
0.0
  0
VISUALSTYLE
  5
1BF
102
{ACAD_REACTORS
330
28
102
}
330
28
100
AcDbVisualStyle
  2
FlatWithEdges
 70
     1
 71
     2
 72
     1
 73
     1
 90
        2
 40
-0.6
 41
30.0
 62
     5
 63
     7
421
 16777215
 74
     1
 91
        4
 64
     7
 65
   257
 75
     1
175
     1
 42
1.0
 92
        0
 66
   257
 43
1.0
 76
     1
 77
     6
 78
     2
 67
     7
 79
     5
170
     0
171
     0
290
     0
174
     0
 93
       13
 44
0.0
173
     0
291
     1
 45
0.0
  0
VISUALSTYLE
  5
1C0
102
{ACAD_REACTORS
330
28
102
}
330
28
100
AcDbVisualStyle
  2
Gouraud
 70
     2
 71
     2
 72
     2
 73
     1
 90
        2
 40
-0.6
 41
30.0
 62
     5
 63
     7
421
 16777215
 74
     0
 91
        4
 64
     7
 65
   257
 75
     1
175
     1
 42
1.0
 92
        0
 66
     7
 43
1.0
 76
     1
 77
     6
 78
     2
 67
     7
 79
     5
170
     0
171
     0
290
     0
174
     0
 93
       13
 44
0.0
173
     0
291
     1
 45
0.0
  0
VISUALSTYLE
  5
1C1
102
{ACAD_REACTORS
330
28
102
}
330
28
100
AcDbVisualStyle
  2
GouraudWithEdges
 70
     3
 71
     2
 72
     2
 73
     1
 90
        2
 40
-0.6
 41
30.0
 62
     5
 63
     7
421
 16777215
 74
     1
 91
        4
 64
     7
 65
   257
 75
     1
175
     1
 42
1.0
 92
        0
 66
   257
 43
1.0
 76
     1
 77
     6
 78
     2
 67
     7
 79
     5
170
     0
171
     0
290
     0
174
     0
 93
       13
 44
0.0
173
     0
291
     1
 45
0.0
  0
VISUALSTYLE
  5
1C8
102
{ACAD_REACTORS
330
28
102
}
330
28
100
AcDbVisualStyle
  2
Linepattern
 70
    14
 71
     2
 72
     2
 73
     0
 90
        0
 40
-0.6
 41
-30.0
 62
     5
 63
     7
421
 16777215
 74
     1
 91
        4
 64
     7
 65
   257
 75
     7
175
     7
 42
1.0
 92
        8
 66
     7
 43
1.0
 76
     1
 77
     6
 78
     2
 67
     7
 79
     5
170
     0
171
     0
290
     0
174
     0
 93
        1
 44
0.0
173
     0
291
     1
 45
0.0
  0
VISUALSTYLE
  5
41
102
{ACAD_REACTORS
330
28
102
}
330
28
100
AcDbVisualStyle
  2
Realistic
 70
     8
 71
     2
 72
     2
 73
     0
 90
        0
 40
-0.6
 41
-30.0
 62
     5
 63
     7
421
 16777215
 74
     1
 91
        0
 64
     7
 65
   257
 75
     1
175
     1
 42
1.0
 92
        8
 66
     8
424
  7895160
 43
1.0
 76
     1
 77
     6
 78
     2
 67
     7
 79
     5
170
     0
171
     0
290
     0
174
     0
 93
       13
 44
0.0
173
     0
291
     0
 45
0.0
  0
VISUALSTYLE
  5
1C7
102
{ACAD_REACTORS
330
28
102
}
330
28
100
AcDbVisualStyle
  2
Thicken
 70
    13
 71
     2
 72
     2
 73
     0
 90
        0
 40
-0.6
 41
-30.0
 62
     5
 63
     7
421
 16777215
 74
     1
 91
        4
 64
     7
 65
   257
 75
     1
175
     1
 42
1.0
 92
       12
 66
     7
 43
1.0
 76
     1
 77
     6
 78
     2
 67
     7
 79
     5
170
     0
171
     0
290
     0
174
     0
 93
        1
 44
0.0
173
     0
291
     1
 45
0.0
  0
DICTIONARYVAR
  5
1BC
102
{ACAD_REACTORS
330
1BB
102
}
330
1BB
100
DictionaryVariables
280
     0
  1
STANDARD
  0
DICTIONARY
  5
15
330
14
100
AcDbDictionary
280
     1
281
     1
  3
ADSK_XREC_LAYOUTTHUMBNAIL
360
16
  0
XRECORD
  5
16
102
{ACAD_REACTORS
330
15
102
}
330
15
100
AcDbXrecord
280
     1
310
28000000B40000007F00000001000800000000004C590000000000000000000000010000000000000000000000000000FFFFFF000000000000000000000000000000000000000000000000000000000000000000330000006600000099000000CC000000FF00000000330000333300006633000099330000CC330000FF3300
310
0000660000336600006666000099660000CC660000FF66000000990000339900006699000099990000CC990000FF99000000CC000033CC000066CC000099CC0000CCCC0000FFCC000000FF000033FF000066FF000099FF0000CCFF0000FFFF000000003300330033006600330099003300CC003300FF003300003333003333
310
33006633330099333300CC333300FF33330000663300336633006666330099663300CC663300FF66330000993300339933006699330099993300CC993300FF99330000CC330033CC330066CC330099CC3300CCCC3300FFCC330000FF330033FF330066FF330099FF3300CCFF3300FFFF330000006600330066006600660099
310
006600CC006600FF00660000336600333366006633660099336600CC336600FF33660000666600336666006666660099666600CC666600FF66660000996600339966006699660099996600CC996600FF99660000CC660033CC660066CC660099CC6600CCCC6600FFCC660000FF660033FF660066FF660099FF6600CCFF6600
310
FFFF660000009900330099006600990099009900CC009900FF00990000339900333399006633990099339900CC339900FF33990000669900336699006666990099669900CC669900FF66990000999900339999006699990099999900CC999900FF99990000CC990033CC990066CC990099CC9900CCCC9900FFCC990000FF99
310
0033FF990066FF990099FF9900CCFF9900FFFF99000000CC003300CC006600CC009900CC00CC00CC00FF00CC000033CC003333CC006633CC009933CC00CC33CC00FF33CC000066CC003366CC006666CC009966CC00CC66CC00FF66CC000099CC003399CC006699CC009999CC00CC99CC00FF99CC0000CCCC0033CCCC0066CC
310
CC0099CCCC00CCCCCC00FFCCCC0000FFCC0033FFCC0066FFCC0099FFCC00CCFFCC00FFFFCC000000FF003300FF006600FF009900FF00CC00FF00FF00FF000033FF003333FF006633FF009933FF00CC33FF00FF33FF000066FF003366FF006666FF009966FF00CC66FF00FF66FF000099FF003399FF006699FF009999FF00CC
310
99FF00FF99FF0000CCFF0033CCFF0066CCFF0099CCFF00CCCCFF00FFCCFF0000FFFF0033FFFF0066FFFF0099FFFF00CCFFFF00FFFFFF00000000000D0D0D001A1A1A00282828003535350043434300505050005D5D5D006B6B6B00787878008686860093939300A1A1A100AEAEAE00BBBBBB00C9C9C900D6D6D600E4E4E400
310
F1F1F100FFFFFF0000000000000000000000000000000000000000000000000000000000000000000000000000000000F5F5F5F5F5F5F5F5F5F5F5F5F5F5F5F5F5F5F5F5F5F5F5F5F5F5F5F5F5F5F5F5F5F5F5F5F5F5F5F5F5F5F5F5F5F5F5F5F5F5F5F5F5F5F5F5F5F5F5F5F5F5F5F5F5F5F5F5F5F5F5F5F5F5F5F5F5F5F5
310
F5F5F5F5F5F5F5F5F5F5F5F5F5F5F5F5F5F5F5F5F5F5F5F5F5F5F5F5F5F5F5F5F5F5F5F5F5F5F5F5F5F5F5F5F5F5F5F5F5F5F5F5F5F5F5F5F5F5F5F5F5F5F5F5F5F5F5F5F5F5F5F5F5F5F5F5F5F5F5F5F5F5F5F5F5F5F5F5F5F5F5F5F5F5F5F5F5F5F5F5F5F5E2E2E2E2E2E2E2E2E2E2E2E2E2E2E2E2E2E2E2E2E2E2E2E2E2
310
E2E2E2E2E2E2E2E2E2E2E2E2E2E2E2E2E2E2E2E2E2E2E2E2E2E2E2E2E2E2E2E2E2E2E2E2E2E2E2E2E2E2E2E2E2E2E2E2E2E2E2E2E2E2E2E2E2E2E2E2E2E2E2E2E2E2E2E2E2E2E2E2E2E2E2E2E2E2E2E2E2E2E2E2E2E2E2E2E2E2E2E2E2E2E2E2E2E2E2E2E2E2E2E2E2E2E2E2E2E2E2E2E2E2E2E2E2E2E2E2E2E2E2E2E2E2E2
310
E2E2E2E2E2E2E2E2E2E2E2E2E2E2E2E2E2E2E2E2E2E2E2E2E2E2F5F5E2E2E2E2E2E2E2E2E2E2E2E2E2E2E2E2E2E2E2E2E2E2E2E2E2E2E2E2E2E2E2E2E2E2E2E2E2E2E2E2E2E2E2E2E2E2E2E2E2E2E2E2E2E2E2E2E2E2E2E2E2E2E2E2E2E2E2E2E2E2E2E2E2E2E2E2E2E2E2E2E2E2E2E2E2E2E2E2E2E2E2E2E2E2E2E2E2E2E2
310
E2E2E2E2E2E2E2E2E2E2E2E2E2E2E2E2E2E2E2E2E2E2E2E2E2E2E2E2E2E2E2E2E2E2E2E2E2E2E2E2E2E2E2E2E2E2E2E2E2E2E2E2E2E2E2E2E2E2E2E2E2E2E2E2E2E2E2E2E2E2E2E2E2E2E2E2E2E2E2F5F5E2E2E2E2E2E2E2E2E2E2E2E2E2E2E2E2E2E2E2E2E2E2E2E2E2E2E2E2E2E2E2E2E2E2E2E2E2E2E2E2E2E2E2E2E2E2
310
E2E2E2E2E2E2E2E2E2E2E2E2E2E2E2E2E2E2E2E2E2E2E2E2E2E2E2E2E2E2E2E2E2E2E2E2E2E2E2E2E2E2E2E2E2E2E2E2E2E2E2E2E2E2E2E2E2E2E2E2E2E2E2E2E2E2E2E2E2E2E2E2E2E2E2E2E2E2E2E2E2E2E2E2E2E2E2E2E2E2E2E2E2E2E2E2E2E2E2E2E2E2E2E2E2E2E2E2E2E2E2E2E2E2E2E2E2E2E2E2E2E2E2E2E2E2E2
310
E2E2E2E2E2F5F5E2E2E2E2E2E2E2E2E2E2E2F5F5F5F5F5F5F5F5F5E2E2E2E2E2E2E2E2E2F5F5F5F5F5F5F5F5F5F5F5F5F5F5F5F5F5E2E2E2E2E2E2E2E2E2F5F5F5F5F5F5F5F5F5F5F5F5F5F5F5F5E2E2E2E2E2E2E2E2E2E2F5F5F5F5F5F5F5F5F5F5F5F5F5F5F5F5E2E2E2E2E2E2E2E2E2E2F5F5F5F5F5F5F5F5F5F5F5F5F5
310
F5F5F5E2E2E2E2E2E2E2E2E2F5F5F5F5F5F5F5F5F5F5F5F5F5F5F5F5F5E2E2E2E2E2E2E2E2E2F5F5F5F5F5F5F5F5F5E2E2E2E2E2E2E2E2E2E2E2F5F5E2E2E2E2E2E2E2E2E2E2E2F5E2E2E2E2E2E2E2E2E2E2E2E2E2E2E2E2E2E2E2E2E2E2E2E2E2E2E2E2E2E2E2E2E2E2E2E2E2E2E2E2E2E2E2E2E2E2E2E2E2E2E2E2E2E2E2
310
E2E2E2E2E2E2E2E2E2E2E2E2E2E2E2E2E2E2E2E2E2E2E2E2E2E2E2E2E2E2E2E2E2E2E2E2E2E2E2E2E2E2E2E2E2E2E2E2E2E2E2E2E2E2E2E2E2E2E2E2E2E2E2E2E2E2E2E2E2E2E2E2E2E2E2E2E2E2E2E2E2E2E2E2E2E2E2E2E2E2E2E2E2E2E2E2E2E2E2F5E2E2E2E2E2E2E2E2E2E2E2F5F5E2E2E2E2E2E2E2E2E2E2E2F5E2E2
310
E2E2E2E2E2E2E2E2E2E2E2E2E2E2E2E2E2E2E2E2E2E2E2E2E2E2E2E2E2E2E2E2E2E2E2E2E2E2E2E2E2E2E2E2E2E2E2E2E2E2E2E2E2E2E2E2E2E2E2E2E2E2E2E2E2E2E2E2E2E2E2E2E2E2E2E2E2E2E2E2E2E2E2E2E2E2E2E2E2E2E2E2E2E2E2E2E2E2E2E2E2E2E2E2E2E2E2E2E2E2E2E2E2E2E2E2E2E2E2E2E2E2E2E2E2E2E2
310
E2E2E2E2E2E2E2E2E2E2E2E2E2E2E2E2E2E2E2E2E2E2E2E2E2F5E2E2E2E2E2E2E2E2E2E2E2F5F5E2E2E2E2E2E2E2E2E2E2E2F5E2E2E2E2E2E2E2E2E2E2E2E2E2E2E2E2E2E2E2E2E2E2E2E2E2E2E2E2E2E2E2E2E2E2E2E2E2E2E2E2E2E2E2E2E2E2E2E2E2E2E2E2E2E2E2E2E2E2E2E2E2E2E2E2E2E2E2E2E2E2E2E2E2E2E2E2
310
E2E2E2E2E2E2E2E2E2E2E2E2E2E2E2E2E2E2E2E2E2E2E2E2E2E2E2E2E2E2E2E2E2E2E2E2E2E2E2E2E2E2E2E2E2E2E2E2E2E2E2E2E2E2E2E2E2E2E2E2E2E2E2E2E2E2E2E2E2E2E2E2E2E2E2E2E2E2F5E2E2E2E2E2E2E2E2E2E2E2F5F5E2E2E2E2E2E2E2E2E2E2E2F5E2E2E2E2E2E2E2E2E2E2E2E2E2E2E2E2E2E2E2E2E2E2E2
310
E2E2E2E2E2E2E2E2E2E2E2E2E2E2E2E2E2E2E2E2E2E2E2E2E2E2E2E2E2E2E2E2E2E2E2E2E2E2E2E2E2E2E2E2E2E2E2E2E2E2E2E2E2E2E2E2E2E2E2E2E2E2E2E2E2E2E2E2E2E2E2E2E2E2E2E2E2E2E2E2E2E2E2E2E2E2E2E2E2E2E2E2E2E2E2E2E2E2E2E2E2E2E2E2E2E2E2E2E2E2E2E2E2E2E2E2E2E2E2E2E2E2E2E2E2E2E2
310
E2E2E2E2F5E2E2E2E2E2E2E2E2E2E2E2F5F5E2E2E2E2E2E2E2E2E2E2E2F5E2E2E2E2E2E2E2E2E2E2E2E2E2E2E2E2E2E2E2E2E2E2E2E2E2E2E2E2E2E2E2E2E2E2E2E2E2E2E2E2E2E2E2E2E2E2E2E2E2E2E2E2E2E2E2E2E2E2E2E2E2E2E2E2E2E2E2E2E2E2E2E2E2E2E2E2E2E2E2E2E2E2E2E2E2E2E2E2E2E2E2E2E2E2E2E2E2
310
E2E2E2E2E2E2E2E2E2E2E2E2E2E2E2E2E2E2E2E2E2E2E2E2E2E2E2E2E2E2E2E2E2E2E2E2E2E2E2E2E2E2E2E2E2E2E2E2E2E2E2E2E2E2E2E2E2F5E2E2E2E2E2E2E2E2E2E2E2F5F5E2E2E2E2E2E2E2E2E2E2E2F5E2E2E2E2E2E2E2E2E2E2E2E2E2E2E2E2E2E2E2E2E2E2E2E2E2E2E2E2E2E2E2E2E2E2E2E2E2E2E2E2E2E2E2E2
310
E2E2E2E2E2E2E2E2E2E2E2E2E2E2E2E2E2E2E2E2E2E2E2E2E2E2E2E2E2E2E2E2E2E2E2E2E2E2E2E2E2E2E2E2E2E2E2E2E2E2E2E2E2E2E2E2E2E2E2E2E2E2E2E2E2E2E2E2E2E2E2E2E2E2E2E2E2E2E2E2E2E2E2E2E2E2E2E2E2E2E2E2E2E2E2E2E2E2E2E2E2E2E2E2E2E2E2E2E2E2F5E2E2E2E2E2E2E2E2E2E2E2F5F5E2E2E2
310
E2E2E2E2E2E2E2E2F5E2E2E2E2E2E2E2E2E2E2E2E2E2E2E2E2E2E2E2E2E2E2E2E2E2E2E2E2E2E2E2E2E2E2E2E2E2E2E2E2E2E2E2E2E2E2E2E2E2E2E2E2E2E2E2E2E2E2E2E2E2E2E2E2E2E2E2E2E2E2E2E2E2E2E2E2E2E2E2E2E2E2E2E2E2E2E2E2E2E2E2E2E2E2E2E2E2E2E2E2E2E2E2E2E2E2E2E2E2E2E2E2E2E2E2E2E2E2
310
E2E2E2E2E2E2E2E2E2E2E2E2E2E2E2E2E2E2E2E2E2E2E2E2E2E2E2E2E2E2E2E2E2E2E2E2F5E2E2E2E2E2E2E2E2E2E2E2F5F5E2E2E2E2E2E2E2E2E2E2E2E2E2E2E2E2E2E2E2E2E2E2E2E2E2E2E2E2E2E2E2E2E2E2E2E2E2E2E2E2E2E2E2E2E2E2E2E2E2E2E2E2E2E2E2E2E2E2E2E2E2E2E2E2E2E2E2E2E2E2E2E2E2E2E2E2E2
310
E2E2E2E2E2E2E2E2E2E2E2E2E2E2E2E2E2E2E2E2E2E2E2E2E2E2E2E2E2E2E2E2E2E2E2E2E2E2E2E2E2E2E2E2E2E2E2E2E2E2E2E2E2E2E2E2E2E2E2E2E2E2E2E2E2E2E2E2E2E2E2E2E2E2E2E2E2E2E2E2E2E2E2E2E2E2E2E2E2E2E2E2E2E2E2E2E2E2E2E2E2F5F5E2E2E2E2E2E2E2E2E2E2E2E2E2E2E2E2E2E2E2E2E2E2E2E2
310
E2E2E2E2E2E2E2E2E2E2E2E2E2E2E2E2E2E2E2E2E2E2E2E2E2E2E2E2E2E2E2E2E2E2E2E2E2E2E2E2E2E2E2E2E2E2E2E2E2E2E2E2E2E2E2E2E2E2E2E2E2E2E2E2E2E2E2E2E2E2E2E2E2E2E2E2E2E2E2E2E2E2E2E2E2E2E2E2E2E2E2E2E2E2E2E2E2E2E2E2E2E2E2E2E2E2E2E2E2E2E2E2E2E2E2E2E2E2E2E2E2E2E2E2E2E2E2
310
E2E2E2E2E2E2E2E2E2E2E2E2E2E2E2E2E2E2E2E2E2E2E2E2E2E2E2F5F5E2E2E2E2E2E2E2E2E2E2E2E2E2E2E2E2E2E2E2E2E2E2E2E2E2E2E2E2E2E2E2E2E2E2E2E2E2E2E2E2E2E2E2E2E2E2E2E2E2E2E2E2E2E2E2E2E2E2E2E2E2E2E2E2E2E2E2E2E2E2E2E2E2E2E2E2E2E2E2E2E2E2E2E2E2E2E2E2E2E2E2E2E2E2E2E2E2E2
310
E2E2E2E2E2E2E2E2E2E2E2E2E2E2E2E2E2E2E2E2E2E2E2E2E2E2E2E2E2E2E2E2E2E2E2E2E2E2E2E2E2E2E2E2E2E2E2E2E2E2E2E2E2E2E2E2E2E2E2E2E2E2E2E2E2E2E2E2E2E2E2E2E2E2E2E2E2E2E2E2F5F5E2E2E2E2E2E2E2E2E2E2E2E2E2E2E2E2E2E2E2E2E2E2E2E2E2E2E2E2E2E2E2E2E2E2E2E2E2E2E2E2E2E2E2E2E2
310
E2E2E2E2E2E2E2E2E2E2E2E2E2E2E2E2E2E2E2E2E2E2E2E2E2E2E2E2E2E2E2E2E2E2E2E2E2E2E2E2E2E2E2E2E2E2E2E2E2E2E2E2E2E2E2E2E2E2E2E2E2E2E2E2E2E2E2E2E2E2E2E2E2E2E2E2E2E2E2E2E2E2E2E2E2E2E2E2E2E2E2E2E2E2E2E2E2E2E2E2E2E2E2E2E2E2E2E2E2E2E2E2E2E2E2E2E2E2E2E2E2E2E2E2E2E2E2
310
E2E2E2E2E2E2F5F5E2E2E2E2E2E2E2E2E2E2E2E2E2E2E2E2E2E2E2E2E2E2E2E2E2E2E2F5F5F5F5F5F5F5F5F5F5F5F5F5F5F5F5F5F5F5F5F5F5F5F5F5F5F5F5F5F5F5F5F5F5F5F5F5F5F5F5F5F5F5F5F5F5F5F5F5F5F5F5F5F5F5F5F5F5F5F5F5F5F5F5F5F5F5F5F5F5F5F5F5F5F5F5F5F5F5F5F5F5F5F5F5F5F5F5F5F5F5F5
310
F5F5F5F5F5F5F5F5F5F5F5F5F5F5F5F5F5F5F5F5F5F5F5F5F5F5F5F5F5F5F5F5E2E2E2E2E2E2E2E2E2E2E2E2E2E2E2E2E2E2E2E2E2E2E2E2E2E2E2F5F5E2E2E2E2E2E2E2E2E2E2E2E2E2E2E2E2E2E2E2E2E2E2E2E2E2E2E2F5E2E2E2E2E2E2E2E2E2E2E2E2E2E2E2E2E2E2E2E2E2E2E2E2E2E2E2E2E2E2E2E2E2E2E2E2E2E2
310
E2E2E2E2E2E2E2E2E2E2E2E2E2E2E2E2E2E2E2E2E2E2E2E2E2E2E2E2E2E2E2E2E2E2E2E2E2E2E2E2E2E2E2E2E2E2E2E2E2E2E2E2E2E2E2E2E2E2E2E2E2E2E2E2E2E2E2E2E2E2E2E2E2E2E2E2E2E2E2E2E2E2E2E2F5E2E2E2E2E2E2E2E2E2E2E2E2E2E2E2E2E2E2E2E2E2E2E2E2E2E2E2F5F5E2E2E2E2E2E2E2E2E2E2E2E2E2
310
E2E2E2E2E2E2E2E2E2E2E2E2E2E2F5E2E2E2E2E2E2E2E2E2E2E2E2E2E2E2E2E2E2E2E2E2E2E2E2E2E2E2E2E2E2E2E2E2E2E2E2E2E2E2E2E2E2E2E2E2E2E2E2E2E2E2E2E2E2E2E2E2E2E2E2E2E2E2E2E2E2E2E2E2E2E2E2E2E2E2E2E2E2E2E2E2E2E2E2E2E2E2E2E2E2E2E2E2E2E2E2E2E2E2E2E2E2E2E2E2E2E2E2E2E2E2E2
310
E2E2E2E2E2E2E2E2E2E2F5E2E2E2E2E2E2E2E2E2E2E2E2E2E2E2E2E2E2E2E2E2E2E2E2E2E2E2F5F5E2E2E2E2E2E2E2E2E2E2E2E2E2E2E2E2E2E2E2E2E2E2E2E2E2E2E2F5E2E2E2E2E2E2E2E2E2E2E2E2E2E2E2E2E2E2E2E2E2E2E2E2E2E2E2E2E2E2E2E2E2E2E2E2E2E2E2E2E2E2E2E2E2E2E2E2E2E2E2E2E2E2E2E2E2E2E2
310
E2E2E2E2E2E2E2E2E2E2E2E2E2E2E2E2E2E2E2E2E2E2E2E2E2E2E2E2E2E2E2E2E2E2E2E2E2E2E2E2E2E2E2E2E2E2E2E2E2E2E2E2E2E2E2E2E2E2E2E2E2E2E2F5E2E2E2E2E2E2E2E2E2E2E2E2E2E2E2E2E2E2E2E2E2E2E2E2E2E2E2F5F5E2E2E2E2E2E2E2E2E2E2E2F5E2E2E2E2E2E2E2E2E2E2E2E2E2E2E2F5E2E2E2E2E2E2
310
E2E2E2E2E2E2E2E2E2E2E2E2E2E2E2E2E2E2E2E2E2E2E2E2E2E2E2E2E2E2E2E2E2E2E2E2E2E2E2E2E2E2E2E2E2E2E2E2E2E2E2E2E2E2E2E2E2E2E2E2E2E2E2E2E2E2E2E2E2E2E2E2E2E2E2E2E2E2E2E2E2E2E2E2E2E2E2E2E2E2E2E2E2E2E2E2E2E2E2E2E2E2E2E2E2E2E2E2E2E2E2E2E2E2E2E2F5E2E2E2E2E2E2E2E2E2E2
310
E2E2E2E2E2F5E2E2E2E2E2E2E2E2E2E2E2F5F5E2E2E2E2E2E2E2E2E2E2E2F5E2E2E2E2E2E2E2E2E2E2E2E2E2E2E2F5E2E2E2E2E2E2E2E2E2E2E2E2E2E2E2E2E2E2E2E2E2E2E2E2E2E2E2E2E2E2E2E2E2E2E2E2E2E2E2E2E2E2E2E2E2E2E2E2E2E2E2E2E2E2E2E2E2E2E2E2E2E2E2E2E2E2E2E2E2E2E2E2E2E2E2E2E2E2E2E2
310
E2E2E2E2E2E2E2E2E2E2E2E2E2E2E2E2E2E2E2E2E2E2E2E2E2E2E2E2E2E2E2E2E2E2E2E2E2E2E2E2E2E2F5E2E2E2E2E2E2E2E2E2E2E2E2E2E2E2F5E2E2E2E2E2E2E2E2E2E2E2F5F5E2E2E2E2E2E2E2E2E2E2E2F5E2E2E2E2E2E2E2E2E2E2E2E2E2E2E2F5E2E2E2E2E2E2E2E2E2E2E2E2E2E2E2E2E2E2E2E2E2E2E2E2E2E2E2
310
E2E2E2E2E2E2E2E2E2E2E2E2E2E2E2E2E2E2E2E2E2E2E2E2E2E2E2E2E2E2E2E2E2E2E2E2E2E2E2E2E2E2E2E2E2E2E2E2E2E2E2E2E2E2E2E2E2E2E2E2E2E2E2E2E2E2E2E2E2E2E2E2E2E2E2E2E2E2E2E2E2E2E2E2E2E2E2E2E2E2E2E2E2E2E2F5E2E2E2E2E2E2E2E2E2E2E2E2E2E2E2F5E2E2E2E2E2E2E2E2E2E2E2F5F5E2E2
310
E2E2E2E2E2E2E2E2E2F5E2E2E2E2E2E2E2E2E2E2E2E2E2E2E2F5E2E2E2E2E2E2E2E2E2E2E2E2E2E2E2E2E2E2E2E2E2E2E2E2E2E2E2E2E2E2E2E2E2E2E2E2E2E2E2E2E2E2E2E2E2E2E2E2E2E2E2E2E2E2E2E2E2E2E2E2E2E2E2E2E2E2E2E2E2E2E2E2E2E2E2E2E2E2E2E2E2E2E2E2E2E2E2E2E2E2E2E2E2E2E2E2E2E2E2E2E2
310
E2E2E2E2E2E2E2E2E2E2E2E2E2E2E2E2E2E2E2E2E2F5E2E2E2E2E2E2E2E2E2E2E2E2E2E2E2F5E2E2E2E2E2E2E2E2E2E2E2F5F5E2E2E2E2E2E2E2E2E2E2E2F5E2E2E2E2E2E2E2E2E2E2E2E2E2E2E2F5E2E2E2E2E2E2E2E2E2E2E2E2E2E2E2E2E2E2E2E2E2E2E2E2E2E2E2E2E2E2E2E2E2E2E2E2E2E2E2E2E2E2E2E2E2E2E2E2
310
E2E2E2E2E2E2E2E2E2E2E2E2E2E2E2E2E2E2E2E2E2E2E2E2E2E2E2E2E2E2E2E2E2E2E2E2E2E2E2E2E2E2E2E2E2E2E2E2E2E2E2E2E2E2E2E2E2E2E2E2E2E2E2E2E2E2E2E2E2E2E2E2E2E2F5E2E2E2E2E2E2E2E2E2E2E2E2E2E2E2F5E2E2E2E2E2E2E2E2E2E2E2F5F5E2E2E2E2E2E2E2E2E2E2E2F5E2E2E2E2E2E2E2E2E2E2E2
310
E2E2E2E2F5E2E2E2E2E2E2E2E2E2E2E2E2E2E2E2E2E2E2E2E2E2E2E2E2E2E2E2E2E2E2E2E2E2E2E2E2E2E2E2E2E2E2E2E2E2E2E2E2E2E2E2E2E2E2E2E2E2E2E2E2E2E2E2E2E2E2E2E2E2E2E2E2E2E2E2E2E2E2E2E2E2E2E2E2E2E2E2E2E2E2E2E2E2E2E2E2E2E2E2E2E2E2E2E2E2E2E2E2E2E2E2E2E2E2E2E2E2E2E2E2E2E2
310
F5E2E2E2E2E2E2E2E2E2E2E2E2E2E2E2F5E2E2E2E2E2E2E2E2E2E2E2F5F5E2E2E2E2E2E2E2E2E2E2E2F5E2E2E2E2E2E2E2E2E2E2E2E2E2E2E2F5E2E2E2E2E2E2E2E2E2E2E2E2E2E2E2E2E2E2E2E2E2E2E2E2E2E2E2E2E2E2E2E2E2E2E2E2E2E2E2E2E2E2E2E2E2E2E2E2E2E2E2E2E2E2E2E2E2E2E2E2E2E2E2E2E2E2E2E2E2
310
E2E2E2E2E2E2E2E2E2E2E2E2E2E2E2E2E2E2E2E2E2E2E2E2E2E2E2E2E2E2E2E2E2E2E2E2E2E2E2E2E2E2E2E2E2E2E2E2E2E2E2E2E2F5E2E2E2E2E2E2E2E2E2E2E2E2E2E2E2F5E2E2E2E2E2E2E2E2E2E2E2F5F5E2E2E2E2E2E2E2E2E2E2E2F5E2E2E2E2E2E2E2E2E2E2E2E2E2E2E2F5E2E2E2E2E2E2E2E2E2E2E2E2E2E2E2E2
310
E2E2E2E2E2E2E2E2E2E2E2E2E2E2E2E2E2E2E2E2E2E2E2E2E2E2E2E2E2E2E2E2E2E2E2E2E2E2E2E2E2E2E2E2E2E2E2E2E2E2E2E2E2E2E2E2E2E2E2E2E2E2E2E2E2E2E2E2E2E2E2E2E2E2E2E2E2E2E2E2E2E2E2E2E2E2E2E2E2E2E2E2E2E2E2E2E2E2E2E2E2E2E2E2E2E2F5E2E2E2E2E2E2E2E2E2E2E2E2E2E2E2F5E2E2E2E2
310
E2E2E2E2E2E2E2F5F5E2E2E2E2E2E2E2E2E2E2E2F5E2E2E2E2E2E2E2E2E2E2E2E2E2E2E2F5E2E2E2E2E2E2E2E2E2E2E2E2E2E2E2E2E2E2E2E2E2E2E2E2E2E2E2E2E2E2E2E2E2E2E2E2E2E2E2E2E2E2E2E2E2E2E2E2E2E2E2E2E2E2E2E2E2E2E2E2E2E2E2E2E2E2E2E2E2E2E2E2E2E2E2E2E2E2E2E2E2E2E2E2E2E2E2E2E2E2
310
E2E2E2E2E2E2E2E2E2E2E2E2E2E2E2E2E2E2E2E2E2E2E2E2E2E2E2E2E2E2E2E2F5E2E2E2E2E2E2E2E2E2E2E2E2E2E2E2F5E2E2E2E2E2E2E2E2E2E2E2F5F5E2E2E2E2E2E2E2E2E2E2E2F5E2E2E2E2E2E2E2E2E2E2E2E2E2E2E2F5E2E2E2E2E2E2E2E2E2E2E2E2E2E2E2E2E2E2E2E2E2E2E2E2E2E2E2E2E2E2E2E2E2E2E2E2E2
310
E2E2E2E2E2E2E2E2E2E2E2E2E2E2E2E2E2E2E2E2E2E2E2E2E2E2E2E2E2E2E2E2E2E2E2E2E2E2E2E2E2E2E2E2E2E2E2E2E2E2E2E2E2E2E2E2E2E2E2E2E2E2E2E2E2E2E2E2E2E2E2E2E2E2E2E2E2E2E2E2E2E2E2E2E2F5E2E2E2E2E2E2E2E2E2E2E2E2E2E2E2F5E2E2E2E2E2E2E2E2E2E2E2F5F5E2E2E2E2E2E2E2E2E2E2E2F5
310
E2E2E2E2E2E2E2E2E2E2E2E2E2E2E2F5E2E2E2E2E2E2E2E2E2E2E2E2E2E2E2E2E2E2E2E2E2E2E2E2E2E2E2E2E2E2E2E2E2E2E2E2E2E2E2E2E2E2E2E2E2E2E2E2E2E2E2E2E2E2E2E2E2E2E2E2E2E2E2E2E2E2E2E2E2E2E2E2E2E2E2E2E2E2E2E2E2E2E2E2E2E2E2E2E2E2E2E2E2E2E2E2E2E2E2E2E2E2E2E2E2E2E2E2E2E2E2
310
E2E2E2E2E2E2E2E2E2E2E2F5E2E2E2E2E2E2E2E2E2E2E2E2E2E2E2F5E2E2E2E2E2E2E2E2E2E2E2F5F5E2E2E2E2E2E2E2E2E2E2E2F5E2E2E2E2E2E2E2E2E2E2E2E2E2E2E2F5E2E2E2E2E2E2E2E2E2E2E2E2E2E2E2E2E2E2E2E2E2E2E2E2E2E2E2E2E2E2E2E2E2E2E2E2E2E2E2E2E2E2E2E2E2E2E2E2E2E2E2E2E2E2E2E2E2E2
310
E2E2E2E2E2E2E2E2E2E2E2E2E2E2E2E2E2E2E2E2E2E2E2E2E2E2E2E2E2E2E2E2E2E2E2E2E2E2E2E2E2E2E2E2E2E2E2E2E2E2E2E2E2E2E2E2E2E2E2E2E2E2E2E2F5E2E2E2E2E2E2E2E2E2E2E2E2E2E2E2F5E2E2E2E2E2E2E2E2E2E2E2F5F5E2E2E2E2E2E2E2E2E2E2E2F5E2E2E2E2E2E2E2E2E2E2E2E2E2E2E2F5E2E2E2E2E2
310
E2E2E2E2E2E2E2E2E2E2E2E2E2E2E2E2E2E2E2E2E2E2E2E2E2E2E2E2E2E2E2E2E2E2E2E2E2E2E2E2E2E2E2E2E2E2E2E2E2E2E2E2E2E2E2E2E2E2E2E2E2E2E2E2E2E2E2E2E2E2E2E2E2E2E2E2E2E2E2E2E2E2E2E2E2E2E2E2E2E2E2E2E2E2E2E2E2E2E2E2E2E2E2E2E2E2E2E2E2E2E2E2E2E2E2E2E2F5E2E2E2E2E2E2E2E2E2
310
E2E2E2E2E2E2F5E2E2E2E2E2E2E2E2E2E2E2F5F5E2E2E2E2E2E2E2E2E2E2E2F5E2E2E2E2E2E2E2E2E2E2E2E2E2E2E2F5E2E2E2E2E2E2E2E2E2E2E2E2E2E2E2E2E2E2E2E2E2E2E2E2E2E2E2E2E2E2E2E2E2E2E2E2E2E2E2E2E2E2E2E2E2E2E2E2E2E2E2E2E2E2E2E2E2E2E2E2E2E2E2E2E2E2E2E2E2E2E2E2E2E2E2E2E2E2E2
310
E2E2E2E2E2E2E2E2E2E2E2E2E2E2E2E2E2E2E2E2E2E2E2E2E2E2E2E2E2E2E2E2E2E2E2E2E2E2E2E2E2E2E2F5E2E2E2E2E2E2E2E2E2E2E2E2E2E2E2F5E2E2E2E2E2E2E2E2E2E2E2F5F5E2E2E2E2E2E2E2E2E2E2E2F5E2E2E2E2E2E2E2E2E2E2E2E2E2E2E2F5E2E2E2E2E2E2E2E2E2E2E2E2E2E2E2E2E2E2E2E2E2E2E2E2E2E2
310
E2E2E2E2E2E2E2E2E2E2E2E2E2E2E2E2E2E2E2E2E2E2E2E2E2E2E2E2E2E2E2E2E2E2E2E2E2E2E2E2E2E2E2E2E2E2E2E2E2E2E2E2E2E2E2E2E2E2E2E2E2E2E2E2E2E2E2E2E2E2E2E2E2E2E2E2E2E2E2E2E2E2E2E2E2E2E2E2E2E2E2E2E2E2E2E2F5E2E2E2E2E2E2E2E2E2E2E2E2E2E2E2F5E2E2E2E2E2E2E2E2E2E2E2F5F5E2
310
E2E2E2E2E2E2E2E2E2E2E2E2E2E2E2E2E2E2E2E2E2E2E2E2E2E2F5E2E2E2E2E2E2E2E2E2E2E2E2E2E2E2E2E2E2E2E2E2E2E2E2E2E2E2E2E2E2E2E2E2E2E2E2E2E2E2E2E2E2E2E2E2E2E2E2E2E2E2E2E2E2E2E2E2E2E2E2E2E2E2E2E2E2E2E2E2E2E2E2E2E2E2E2E2E2E2E2E2E2E2E2E2E2E2E2E2E2E2E2E2E2E2E2E2E2E2E2
310
E2E2E2E2E2E2E2E2E2E2E2E2E2E2E2E2E2E2E2E2E2E2F5E2E2E2E2E2E2E2E2E2E2E2E2E2E2E2E2E2E2E2E2E2E2E2E2E2E2E2F5F5E2E2E2E2E2E2E2E2E2E2E2E2E2E2E2E2E2E2E2E2E2E2E2E2E2E2E2F5E2E2E2E2E2E2E2E2E2E2E2E2E2E2E2E2E2E2E2E2E2E2E2E2E2E2E2E2E2E2E2E2E2E2E2E2E2E2E2E2E2E2E2E2E2E2E2
310
E2E2E2E2E2E2E2E2E2E2E2E2E2E2E2E2E2E2E2E2E2E2E2E2E2E2E2E2E2E2E2E2E2E2E2E2E2E2E2E2E2E2E2E2E2E2E2E2E2E2E2E2E2E2E2E2E2E2E2E2E2E2E2E2E2E2E2E2E2E2E2E2E2E2E2F5E2E2E2E2E2E2E2E2E2E2E2E2E2E2E2E2E2E2E2E2E2E2E2E2E2E2E2F5F5E2E2E2E2E2E2E2E2E2E2E2E2E2E2E2E2E2E2E2E2E2E2
310
E2E2E2E2E2F5E2E2E2E2E2E2E2E2E2E2E2E2E2E2E2E2E2E2E2E2E2E2E2E2E2E2E2E2E2E2E2E2E2E2E2E2E2E2E2E2E2E2E2E2E2E2E2E2E2E2E2E2E2E2E2E2E2E2E2E2E2E2E2E2E2E2E2E2E2E2E2E2E2E2E2E2E2E2E2E2E2E2E2E2E2E2E2E2E2E2E2E2E2E2E2E2E2E2E2E2E2E2E2E2E2E2E2E2E2E2E2E2E2E2E2E2E2E2E2E2E2
310
E2F5E2E2E2E2E2E2E2E2E2E2E2E2E2E2E2E2E2E2E2E2E2E2E2E2E2E2E2F5F5E2E2E2E2E2E2E2E2E2E2E2E2E2E2E2E2E2E2E2E2E2E2E2E2E2E2E2F5E2E2E2E2E2E2E2E2E2E2E2E2E2E2E2E2E2E2E2E2E2E2E2E2E2E2E2E2E2E2E2E2E2E2E2E2E2E2E2E2E2E2E2E2E2E2E2E2E2E2E2E2E2E2E2E2E2E2E2E2E2E2E2E2E2E2E2E2
310
E2E2E2E2E2E2E2E2E2E2E2E2E2E2E2E2E2E2E2E2E2E2E2E2E2E2E2E2E2E2E2E2E2E2E2E2E2E2E2E2E2E2E2E2E2E2E2E2E2E2E2E2E2E2F5E2E2E2E2E2E2E2E2E2E2E2E2E2E2E2E2E2E2E2E2E2E2E2E2E2E2E2F5F5E2E2E2E2E2E2E2E2E2E2E2E2E2E2E2E2E2E2E2E2E2E2E2E2E2E2E2F5E2E2E2E2E2E2E2E2E2E2E2E2E2E2E2
310
E2E2E2E2E2E2E2E2E2E2E2E2E2E2E2E2E2E2E2E2E2E2E2E2E2E2E2E2E2E2E2E2E2E2E2E2E2E2E2E2E2E2E2E2E2E2E2E2E2E2E2E2E2E2E2E2E2E2E2E2E2E2E2E2E2E2E2E2E2E2E2E2E2E2E2E2E2E2E2E2E2E2E2E2E2E2E2E2E2E2E2E2E2E2E2E2E2E2E2E2E2E2E2E2E2E2E2F5E2E2E2E2E2E2E2E2E2E2E2E2E2E2E2E2E2E2E2
310
E2E2E2E2E2E2E2E2F5F5E2E2E2E2E2E2E2E2E2E2E2E2E2E2E2E2E2E2E2E2E2E2E2E2E2E2E2F5E2E2E2E2E2E2E2E2E2E2E2E2E2E2E2E2E2E2E2E2E2E2E2E2E2E2E2E2E2E2E2E2E2E2E2E2E2E2E2E2E2E2E2E2E2E2E2E2E2E2E2E2E2E2E2E2E2E2E2E2E2E2E2E2E2E2E2E2E2E2E2E2E2E2E2E2E2E2E2E2E2E2E2E2E2E2E2E2E2
310
E2E2E2E2E2E2E2E2E2E2E2E2E2E2E2E2E2E2E2E2E2E2E2E2E2E2E2E2E2E2E2E2E2F5E2E2E2E2E2E2E2E2E2E2E2E2E2E2E2E2E2E2E2E2E2E2E2E2E2E2E2F5F5E2E2E2E2E2E2E2E2E2E2E2E2E2E2E2E2E2E2E2E2E2E2E2E2E2E2E2F5E2E2E2E2E2E2E2E2E2E2E2E2E2E2E2E2E2E2E2E2E2E2E2E2E2E2E2E2E2E2E2E2E2E2E2E2
310
E2E2E2E2E2E2E2E2E2E2E2E2E2E2E2E2E2E2E2E2E2E2E2E2E2E2E2E2E2E2E2E2E2E2E2E2E2E2E2E2E2E2E2E2E2E2E2E2E2E2E2E2E2E2E2E2E2E2E2E2E2E2E2E2E2E2E2E2E2E2E2E2E2E2E2E2E2E2E2E2E2E2E2E2E2E2F5E2E2E2E2E2E2E2E2E2E2E2E2E2E2E2E2E2E2E2E2E2E2E2E2E2E2E2F5F5E2E2E2E2E2E2E2E2E2E2E2
310
E2E2E2E2E2E2E2E2E2E2E2E2E2E2E2E2F5E2E2E2E2E2E2E2E2E2E2E2E2E2E2E2E2E2E2E2E2E2E2E2E2E2E2E2E2E2E2E2E2E2E2E2E2E2E2E2E2E2E2E2E2E2E2E2E2E2E2E2E2E2E2E2E2E2E2E2E2E2E2E2E2E2E2E2E2E2E2E2E2E2E2E2E2E2E2E2E2E2E2E2E2E2E2E2E2E2E2E2E2E2E2E2E2E2E2E2E2E2E2E2E2E2E2E2E2E2E2
310
E2E2E2E2E2E2E2E2E2E2E2E2F5E2E2E2E2E2E2E2E2E2E2E2E2E2E2E2E2E2E2E2E2E2E2E2E2E2E2E2F5F5E2E2E2E2E2E2E2E2E2E2E2E2E2E2E2E2E2E2E2E2E2E2E2E2E2E2E2F5E2E2E2E2E2E2E2E2E2E2E2E2E2E2E2E2E2E2E2E2E2E2E2E2E2E2E2E2E2E2E2E2E2E2E2E2E2E2E2E2E2E2E2E2E2E2E2E2E2E2E2E2E2E2E2E2E2
310
E2E2E2E2E2E2E2E2E2E2E2E2E2E2E2E2E2E2E2E2E2E2E2E2E2E2E2E2E2E2E2E2E2E2E2E2E2E2E2E2E2E2E2E2E2E2E2E2E2E2E2E2E2E2E2E2E2E2E2E2E2E2E2E2E2F5E2E2E2E2E2E2E2E2E2E2E2E2E2E2E2E2E2E2E2E2E2E2E2E2E2E2E2F5F5E2E2E2E2E2E2E2E2E2E2E2F5E2E2E2E2E2E2E2E2E2E2E2E2E2E2E2F5E2E2E2E2
310
E2E2E2E2E2E2E2E2E2E2E2E2E2E2E2E2E2E2E2E2E2E2E2E2E2E2E2E2E2E2E2E2E2E2E2E2E2E2E2E2E2E2E2E2E2E2E2E2E2E2E2E2E2E2E2E2E2E2E2E2E2E2E2E2E2E2E2E2E2E2E2E2E2E2E2E2E2E2E2E2E2E2E2E2E2E2E2E2E2E2E2E2E2E2E2E2E2E2E2E2E2E2E2E2E2E2E2E2E2E2E2E2E2E2E2E2E2E2F5E2E2E2E2E2E2E2E2
310
E2E2E2E2E2E2E2F5E2E2E2E2E2E2E2E2E2E2E2F5F5E2E2E2E2E2E2E2E2E2E2E2F5E2E2E2E2E2E2E2E2E2E2E2E2E2E2E2F5E2E2E2E2E2E2E2E2E2E2E2E2E2E2E2E2E2E2E2E2E2E2E2E2E2E2E2E2E2E2E2E2E2E2E2E2E2E2E2E2E2E2E2E2E2E2E2E2E2E2E2E2E2E2E2E2E2E2E2E2E2E2E2E2E2E2E2E2E2E2E2E2E2E2E2E2E2E2
310
E2E2E2E2E2E2E2E2E2E2E2E2E2E2E2E2E2E2E2E2E2E2E2E2E2E2E2E2E2E2E2E2E2E2E2E2E2E2E2E2E2E2E2E2F5E2E2E2E2E2E2E2E2E2E2E2E2E2E2E2F5E2E2E2E2E2E2E2E2E2E2E2F5F5E2E2E2E2E2E2E2E2E2E2E2F5E2E2E2E2E2E2E2E2E2E2E2E2E2E2E2F5E2E2E2E2E2E2E2E2E2E2E2E2E2E2E2E2E2E2E2E2E2E2E2E2E2
310
E2E2E2E2E2E2E2E2E2E2E2E2E2E2E2E2E2E2E2E2E2E2E2E2E2E2E2E2E2E2E2E2E2E2E2E2E2E2E2E2E2E2E2E2E2E2E2E2E2E2E2E2E2E2E2E2E2E2E2E2E2E2E2E2E2E2E2E2E2E2E2E2E2E2E2E2E2E2E2E2E2E2E2E2E2E2E2E2E2E2E2E2E2E2E2E2E2F5E2E2E2E2E2E2E2E2E2E2E2E2E2E2E2F5E2E2E2E2E2E2E2E2E2E2E2F5F5
310
E2E2E2E2E2E2E2E2E2E2E2F5E2E2E2E2E2E2E2E2E2E2E2E2E2E2E2F5E2E2E2E2E2E2E2E2E2E2E2E2E2E2E2E2E2E2E2E2E2E2E2E2E2E2E2E2E2E2E2E2E2E2E2E2E2E2E2E2E2E2E2E2E2E2E2E2E2E2E2E2E2E2E2E2E2E2E2E2E2E2E2E2E2E2E2E2E2E2E2E2E2E2E2E2E2E2E2E2E2E2E2E2E2E2E2E2E2E2E2E2E2E2E2E2E2E2E2
310
E2E2E2E2E2E2E2E2E2E2E2E2E2E2E2E2E2E2E2E2E2E2E2F5E2E2E2E2E2E2E2E2E2E2E2E2E2E2E2F5E2E2E2E2E2E2E2E2E2E2E2F5F5E2E2E2E2E2E2E2E2E2E2E2F5E2E2E2E2E2E2E2E2E2E2E2E2E2E2E2F5E2E2E2E2E2E2E2E2E2E2E2E2E2E2E2E2E2E2E2E2E2E2E2E2E2E2E2E2E2E2E2E2E2E2E2E2E2E2E2E2E2E2E2E2E2E2
310
E2E2E2E2E2E2E2E2E2E2E2E2E2E2E2E2E2E2E2E2E2E2E2E2E2E2E2E2E2E2E2E2E2E2E2E2E2E2E2E2E2E2E2E2E2E2E2E2E2E2E2E2E2E2E2E2E2E2E2E2E2E2E2E2E2E2E2E2E2E2E2E2E2E2E2E2F5E2E2E2E2E2E2E2E2E2E2E2E2E2E2E2F5E2E2E2E2E2E2E2E2E2E2E2F5F5E2E2E2E2E2E2E2E2E2E2E2F5E2E2E2E2E2E2E2E2E2
310
E2E2E2E2E2E2F5E2E2E2E2E2E2E2E2E2E2E2E2E2E2E2E2E2E2E2E2E2E2E2E2E2E2E2E2E2E2E2E2E2E2E2E2E2E2E2E2E2E2E2E2E2E2E2E2E2E2E2E2E2E2E2E2E2E2E2E2E2E2E2E2E2E2E2E2E2E2E2E2E2E2E2E2E2E2E2E2E2E2E2E2E2E2E2E2E2E2E2E2E2E2E2E2E2E2E2E2E2E2E2E2E2E2E2E2E2E2E2E2E2E2E2E2E2E2E2E2
310
E2E2F5E2E2E2E2E2E2E2E2E2E2E2E2E2E2E2F5E2E2E2E2E2E2E2E2E2E2E2F5F5E2E2E2E2E2E2E2E2E2E2E2F5E2E2E2E2E2E2E2E2E2E2E2E2E2E2E2F5E2E2E2E2E2E2E2E2E2E2E2E2E2E2E2E2E2E2E2E2E2E2E2E2E2E2E2E2E2E2E2E2E2E2E2E2E2E2E2E2E2E2E2E2E2E2E2E2E2E2E2E2E2E2E2E2E2E2E2E2E2E2E2E2E2E2E2
310
E2E2E2E2E2E2E2E2E2E2E2E2E2E2E2E2E2E2E2E2E2E2E2E2E2E2E2E2E2E2E2E2E2E2E2E2E2E2E2E2E2E2E2E2E2E2E2E2E2E2E2E2E2E2E2F5E2E2E2E2E2E2E2E2E2E2E2E2E2E2E2F5E2E2E2E2E2E2E2E2E2E2E2F5F5E2E2E2E2E2E2E2E2E2E2E2F5E2E2E2E2E2E2E2E2E2E2E2E2E2E2E2F5E2E2E2E2E2E2E2E2E2E2E2E2E2E2
310
E2E2E2E2E2E2E2E2E2E2E2E2E2E2E2E2E2E2E2E2E2E2E2E2E2E2E2E2E2E2E2E2E2E2E2E2E2E2E2E2E2E2E2E2E2E2E2E2E2E2E2E2E2E2E2E2E2E2E2E2E2E2E2E2E2E2E2E2E2E2E2E2E2E2E2E2E2E2E2E2E2E2E2E2E2E2E2E2E2E2E2E2E2E2E2E2E2E2E2E2E2E2E2E2E2E2E2E2F5E2E2E2E2E2E2E2E2E2E2E2E2E2E2E2F5E2E2
310
E2E2E2E2E2E2E2E2E2F5F5E2E2E2E2E2E2E2E2E2E2E2F5E2E2E2E2E2E2E2E2E2E2E2E2E2E2E2F5E2E2E2E2E2E2E2E2E2E2E2E2E2E2E2E2E2E2E2E2E2E2E2E2E2E2E2E2E2E2E2E2E2E2E2E2E2E2E2E2E2E2E2E2E2E2E2E2E2E2E2E2E2E2E2E2E2E2E2E2E2E2E2E2E2E2E2E2E2E2E2E2E2E2E2E2E2E2E2E2E2E2E2E2E2E2E2E2
310
E2E2E2E2E2E2E2E2E2E2E2E2E2E2E2E2E2E2E2E2E2E2E2E2E2E2E2E2E2E2E2E2E2E2F5E2E2E2E2E2E2E2E2E2E2E2E2E2E2E2F5E2E2E2E2E2E2E2E2E2E2E2F5F5E2E2E2E2E2E2E2E2E2E2E2F5E2E2E2E2E2E2E2E2E2E2E2E2E2E2E2F5E2E2E2E2E2E2E2E2E2E2E2E2E2E2E2E2E2E2E2E2E2E2E2E2E2E2E2E2E2E2E2E2E2E2E2
310
E2E2E2E2E2E2E2E2E2E2E2E2E2E2E2E2E2E2E2E2E2E2E2E2E2E2E2E2E2E2E2E2E2E2E2E2E2E2E2E2E2E2E2E2E2E2E2E2E2E2E2E2E2E2E2E2E2E2E2E2E2E2E2E2E2E2E2E2E2E2E2E2E2E2E2E2E2E2E2E2E2E2E2E2E2E2E2F5E2E2E2E2E2E2E2E2E2E2E2E2E2E2E2F5E2E2E2E2E2E2E2E2E2E2E2F5F5E2E2E2E2E2E2E2E2E2E2
310
E2F5E2E2E2E2E2E2E2E2E2E2E2E2E2E2E2F5E2E2E2E2E2E2E2E2E2E2E2E2E2E2E2E2E2E2E2E2E2E2E2E2E2E2E2E2E2E2E2E2E2E2E2E2E2E2E2E2E2E2E2E2E2E2E2E2E2E2E2E2E2E2E2E2E2E2E2E2E2E2E2E2E2E2E2E2E2E2E2E2E2E2E2E2E2E2E2E2E2E2E2E2E2E2E2E2E2E2E2E2E2E2E2E2E2E2E2E2E2E2E2E2E2E2E2E2E2
310
E2E2E2E2E2E2E2E2E2E2E2E2E2F5E2E2E2E2E2E2E2E2E2E2E2E2E2E2E2F5E2E2E2E2E2E2E2E2E2E2E2F5F5E2E2E2E2E2E2E2E2E2E2E2F5E2E2E2E2E2E2E2E2E2E2E2E2E2E2E2F5E2E2E2E2E2E2E2E2E2E2E2E2E2E2E2E2E2E2E2E2E2E2E2E2E2E2E2E2E2E2E2E2E2E2E2E2E2E2E2E2E2E2E2E2E2E2E2E2E2E2E2E2E2E2E2E2
310
E2E2E2E2E2E2E2E2E2E2E2E2E2E2E2E2E2E2E2E2E2E2E2E2E2E2E2E2E2E2E2E2E2E2E2E2E2E2E2E2E2E2E2E2E2E2E2E2E2E2E2E2E2E2E2E2E2E2E2E2E2E2E2E2E2E2F5E2E2E2E2E2E2E2E2E2E2E2E2E2E2E2F5E2E2E2E2E2E2E2E2E2E2E2F5F5E2E2E2E2E2E2E2E2E2E2E2F5E2E2E2E2E2E2E2E2E2E2E2E2E2E2E2F5E2E2E2
310
E2E2E2E2E2E2E2E2E2E2E2E2E2E2E2E2E2E2E2E2E2E2E2E2E2E2E2E2E2E2E2E2E2E2E2E2E2E2E2E2E2E2E2E2E2E2E2E2E2E2E2E2E2E2E2E2E2E2E2E2E2E2E2E2E2E2E2E2E2E2E2E2E2E2E2E2E2E2E2E2E2E2E2E2E2E2E2E2E2E2E2E2E2E2E2E2E2E2E2E2E2E2E2E2E2E2E2E2E2E2E2E2E2E2E2E2E2E2E2F5E2E2E2E2E2E2E2
310
E2E2E2E2E2E2E2E2F5E2E2E2E2E2E2E2E2E2E2E2F5F5E2E2E2E2E2E2E2E2E2E2E2F5E2E2E2E2E2E2E2E2E2E2E2E2E2E2E2F5E2E2E2E2E2E2E2E2E2E2E2E2E2E2E2E2E2E2E2E2E2E2E2E2E2E2E2E2E2E2E2E2E2E2E2E2E2E2E2E2E2E2E2E2E2E2E2E2E2E2E2E2E2E2E2E2E2E2E2E2E2E2E2E2E2E2E2E2E2E2E2E2E2E2E2E2E2
310
E2E2E2E2E2E2E2E2E2E2E2E2E2E2E2E2E2E2E2E2E2E2E2E2E2E2E2E2E2E2E2E2E2E2E2E2E2E2E2E2E2E2E2E2E2F5E2E2E2E2E2E2E2E2E2E2E2E2E2E2E2F5E2E2E2E2E2E2E2E2E2E2E2F5F5E2E2E2E2E2E2E2E2E2E2E2F5E2E2E2E2E2E2E2E2E2E2E2E2E2E2E2F5E2E2E2E2E2E2E2E2E2E2E2E2E2E2E2E2E2E2E2E2E2E2E2E2
310
E2E2E2E2E2E2E2E2E2E2E2E2E2E2E2E2E2E2E2E2E2E2E2E2E2E2E2E2E2E2E2E2E2E2E2E2E2E2E2E2E2E2E2E2E2E2E2E2E2E2E2E2E2E2E2E2E2E2E2E2E2E2E2E2E2E2E2E2E2E2E2E2E2E2E2E2E2E2E2E2E2E2E2E2E2E2E2E2E2E2E2E2E2E2E2E2E2E2F5E2E2E2E2E2E2E2E2E2E2E2E2E2E2E2F5E2E2E2E2E2E2E2E2E2E2E2F5
310
F5E2E2E2E2E2E2E2E2E2E2E2E2E2E2E2E2E2E2E2E2E2E2E2E2E2E2E2F5E2E2E2E2E2E2E2E2E2E2E2E2E2E2E2E2E2E2E2E2E2E2E2E2E2E2E2E2E2E2E2E2E2E2E2E2E2E2E2E2E2E2E2E2E2E2E2E2E2E2E2E2E2E2E2E2E2E2E2E2E2E2E2E2E2E2E2E2E2E2E2E2E2E2E2E2E2E2E2E2E2E2E2E2E2E2E2E2E2E2E2E2E2E2E2E2E2E2
310
E2E2E2E2E2E2E2E2E2E2E2E2E2E2E2E2E2E2E2E2E2E2E2E2F5E2E2E2E2E2E2E2E2E2E2E2E2E2E2E2E2E2E2E2E2E2E2E2E2E2E2E2F5F5E2E2E2E2E2E2E2E2E2E2E2E2E2E2E2E2E2E2E2E2E2E2E2E2E2E2E2F5E2E2E2E2E2E2E2E2E2E2E2E2E2E2E2E2E2E2E2E2E2E2E2E2E2E2E2E2E2E2E2E2E2E2E2E2E2E2E2E2E2E2E2E2E2
310
E2E2E2E2E2E2E2E2E2E2E2E2E2E2E2E2E2E2E2E2E2E2E2E2E2E2E2E2E2E2E2E2E2E2E2E2E2E2E2E2E2E2E2E2E2E2E2E2E2E2E2E2E2E2E2E2E2E2E2E2E2E2E2E2E2E2E2E2E2E2E2E2E2E2E2E2E2F5E2E2E2E2E2E2E2E2E2E2E2E2E2E2E2E2E2E2E2E2E2E2E2E2E2E2E2F5F5E2E2E2E2E2E2E2E2E2E2E2E2E2E2E2E2E2E2E2E2
310
E2E2E2E2E2E2E2F5E2E2E2E2E2E2E2E2E2E2E2E2E2E2E2E2E2E2E2E2E2E2E2E2E2E2E2E2E2E2E2E2E2E2E2E2E2E2E2E2E2E2E2E2E2E2E2E2E2E2E2E2E2E2E2E2E2E2E2E2E2E2E2E2E2E2E2E2E2E2E2E2E2E2E2E2E2E2E2E2E2E2E2E2E2E2E2E2E2E2E2E2E2E2E2E2E2E2E2E2E2E2E2E2E2E2E2E2E2E2E2E2E2E2E2E2E2E2E2
310
E2E2E2F5E2E2E2E2E2E2E2E2E2E2E2E2E2E2E2E2E2E2E2E2E2E2E2E2E2E2E2F5F5E2E2E2E2E2E2E2E2E2E2E2E2E2E2E2E2E2E2E2E2E2E2E2E2E2E2E2F5E2E2E2E2E2E2E2E2E2E2E2E2E2E2E2E2E2E2E2E2E2E2E2E2E2E2E2E2E2E2E2E2E2E2E2E2E2E2E2E2E2E2E2E2E2E2E2E2E2E2E2E2E2E2E2E2E2E2E2E2E2E2E2E2E2E2
310
E2E2E2E2E2E2E2E2E2E2E2E2E2E2E2E2E2E2E2E2E2E2E2E2E2E2E2E2E2E2E2E2E2E2E2E2E2E2E2E2E2E2E2E2E2E2E2E2E2E2E2E2E2E2E2E2F5E2E2E2E2E2E2E2E2E2E2E2E2E2E2E2E2E2E2E2E2E2E2E2E2E2E2E2F5F5E2E2E2E2E2E2E2E2E2E2E2E2E2E2E2E2E2E2E2E2E2E2E2E2E2E2E2F5E2E2E2E2E2E2E2E2E2E2E2E2E2
310
E2E2E2E2E2E2E2E2E2E2E2E2E2E2E2E2E2E2E2E2E2E2E2E2E2E2E2E2E2E2E2E2E2E2E2E2E2E2E2E2E2E2E2E2E2E2E2E2E2E2E2E2E2E2E2E2E2E2E2E2E2E2E2E2E2E2E2E2E2E2E2E2E2E2E2E2E2E2E2E2E2E2E2E2E2E2E2E2E2E2E2E2E2E2E2E2E2E2E2E2E2E2E2E2E2E2E2E2E2F5E2E2E2E2E2E2E2E2E2E2E2E2E2E2E2E2E2
310
E2E2E2E2E2E2E2E2E2E2F5F5E2E2E2E2E2E2E2E2E2E2E2E2E2E2E2E2E2E2E2E2E2E2E2E2E2E2E2F5E2E2E2E2E2E2E2E2E2E2E2E2E2E2E2E2E2E2E2E2E2E2E2E2E2E2E2E2E2E2E2E2E2E2E2E2E2E2E2E2E2E2E2E2E2E2E2E2E2E2E2E2E2E2E2E2E2E2E2E2E2E2E2E2E2E2E2E2E2E2E2E2E2E2E2E2E2E2E2E2E2E2E2E2E2E2E2
310
E2E2E2E2E2E2E2E2E2E2E2E2E2E2E2E2E2E2E2E2E2E2E2E2E2E2E2E2E2E2E2E2E2E2E2F5E2E2E2E2E2E2E2E2E2E2E2E2E2E2E2E2E2E2E2E2E2E2E2E2E2E2E2F5F5E2E2E2E2E2E2E2E2E2E2E2E2E2E2E2E2E2E2E2E2E2E2E2E2E2E2E2F5E2E2E2E2E2E2E2E2E2E2E2E2E2E2E2E2E2E2E2E2E2E2E2E2E2E2E2E2E2E2E2E2E2E2
310
E2E2E2E2E2E2E2E2E2E2E2E2E2E2E2E2E2E2E2E2E2E2E2E2E2E2E2E2E2E2E2E2E2E2E2E2E2E2E2E2E2E2E2E2E2E2E2E2E2E2E2E2E2E2E2E2E2E2E2E2E2E2E2E2E2E2E2E2E2E2E2E2E2E2E2E2E2E2E2E2E2E2E2E2E2E2E2E2F5E2E2E2E2E2E2E2E2E2E2E2E2E2E2E2E2E2E2E2E2E2E2E2E2E2E2E2F5F5E2E2E2E2E2E2E2E2E2
310
E2E2E2E2E2E2E2E2E2E2E2E2E2E2E2E2E2E2F5E2E2E2E2E2E2E2E2E2E2E2E2E2E2E2E2E2E2E2E2E2E2E2E2E2E2E2E2E2E2E2E2E2E2E2E2E2E2E2E2E2E2E2E2E2E2E2E2E2E2E2E2E2E2E2E2E2E2E2E2E2E2E2E2E2E2E2E2E2E2E2E2E2E2E2E2E2E2E2E2E2E2E2E2E2E2E2E2E2E2E2E2E2E2E2E2E2E2E2E2E2E2E2E2E2E2E2E2
310
E2E2E2E2E2E2E2E2E2E2E2E2E2E2F5E2E2E2E2E2E2E2E2E2E2E2E2E2E2E2E2E2E2E2E2E2E2E2E2E2E2E2F5F5E2E2E2E2E2E2E2E2E2E2E2F5E2E2E2E2E2E2E2E2E2E2E2E2E2E2E2F5E2E2E2E2E2E2E2E2E2E2E2E2E2E2E2E2E2E2E2E2E2E2E2E2E2E2E2E2E2E2E2E2E2E2E2E2E2E2E2E2E2E2E2E2E2E2E2E2E2E2E2E2E2E2E2
310
E2E2E2E2E2E2E2E2E2E2E2E2E2E2E2E2E2E2E2E2E2E2E2E2E2E2E2E2E2E2E2E2E2E2E2E2E2E2E2E2E2E2E2E2E2E2E2E2E2E2E2E2E2E2E2E2E2E2E2E2E2E2E2E2E2E2E2F5E2E2E2E2E2E2E2E2E2E2E2E2E2E2E2F5E2E2E2E2E2E2E2E2E2E2E2F5F5E2E2E2E2E2E2E2E2E2E2E2F5E2E2E2E2E2E2E2E2E2E2E2E2E2E2E2F5E2E2
310
E2E2E2E2E2E2E2E2E2E2E2E2E2E2E2E2E2E2E2E2E2E2E2E2E2E2E2E2E2E2E2E2E2E2E2E2E2E2E2E2E2E2E2E2E2E2E2E2E2E2E2E2E2E2E2E2E2E2E2E2E2E2E2E2E2E2E2E2E2E2E2E2E2E2E2E2E2E2E2E2E2E2E2E2E2E2E2E2E2E2E2E2E2E2E2E2E2E2E2E2E2E2E2E2E2E2E2E2E2E2E2E2E2E2E2E2E2E2E2E2F5E2E2E2E2E2E2
310
E2E2E2E2E2E2E2E2E2F5E2E2E2E2E2E2E2E2E2E2E2F5F5E2E2E2E2E2E2E2E2E2E2E2F5E2E2E2E2E2E2E2E2E2E2E2E2E2E2E2F5E2E2E2E2E2E2E2E2E2E2E2E2E2E2E2E2E2E2E2E2E2E2E2E2E2E2E2E2E2E2E2E2E2E2E2E2E2E2E2E2E2E2E2E2E2E2E2E2E2E2E2E2E2E2E2E2E2E2E2E2E2E2E2E2E2E2E2E2E2E2E2E2E2E2E2E2
310
E2E2E2E2E2E2E2E2E2E2E2E2E2E2E2E2E2E2E2E2E2E2E2E2E2E2E2E2E2E2E2E2E2E2E2E2E2E2E2E2E2E2E2E2E2E2F5E2E2E2E2E2E2E2E2E2E2E2E2E2E2E2F5E2E2E2E2E2E2E2E2E2E2E2F5F5E2E2E2E2E2E2E2E2E2E2E2F5E2E2E2E2E2E2E2E2E2E2E2E2E2E2E2F5E2E2E2E2E2E2E2E2E2E2E2E2E2E2E2E2E2E2E2E2E2E2E2
310
E2E2E2E2E2E2E2E2E2E2E2E2E2E2E2E2E2E2E2E2E2E2E2E2E2E2E2E2E2E2E2E2E2E2E2E2E2E2E2E2E2E2E2E2E2E2E2E2E2E2E2E2E2E2E2E2E2E2E2E2E2E2E2E2E2E2E2E2E2E2E2E2E2E2E2E2E2E2E2E2E2E2E2E2E2E2E2E2E2E2E2E2E2E2E2E2E2E2E2F5E2E2E2E2E2E2E2E2E2E2E2E2E2E2E2F5E2E2E2E2E2E2E2E2E2E2E2
310
F5F5E2E2E2E2E2E2E2E2E2E2E2F5E2E2E2E2E2E2E2E2E2E2E2E2E2E2E2F5E2E2E2E2E2E2E2E2E2E2E2E2E2E2E2E2E2E2E2E2E2E2E2E2E2E2E2E2E2E2E2E2E2E2E2E2E2E2E2E2E2E2E2E2E2E2E2E2E2E2E2E2E2E2E2E2E2E2E2E2E2E2E2E2E2E2E2E2E2E2E2E2E2E2E2E2E2E2E2E2E2E2E2E2E2E2E2E2E2E2E2E2E2E2E2E2E2
310
E2E2E2E2E2E2E2E2E2E2E2E2E2E2E2E2E2E2E2E2E2E2E2E2E2F5E2E2E2E2E2E2E2E2E2E2E2E2E2E2E2F5E2E2E2E2E2E2E2E2E2E2E2F5F5E2E2E2E2E2E2E2E2E2E2E2F5E2E2E2E2E2E2E2E2E2E2E2E2E2E2E2F5E2E2E2E2E2E2E2E2E2E2E2E2E2E2E2E2E2E2E2E2E2E2E2E2E2E2E2E2E2E2E2E2E2E2E2E2E2E2E2E2E2E2E2E2
310
E2E2E2E2E2E2E2E2E2E2E2E2E2E2E2E2E2E2E2E2E2E2E2E2E2E2E2E2E2E2E2E2E2E2E2E2E2E2E2E2E2E2E2E2E2E2E2E2E2E2E2E2E2E2E2E2E2E2E2E2E2E2E2E2E2E2E2E2E2E2E2E2E2E2E2E2E2E2F5E2E2E2E2E2E2E2E2E2E2E2E2E2E2E2F5E2E2E2E2E2E2E2E2E2E2E2F5F5E2E2E2E2E2E2E2E2E2E2E2F5E2E2E2E2E2E2E2
310
E2E2E2E2E2E2E2E2F5E2E2E2E2E2E2E2E2E2E2E2E2E2E2E2E2E2E2E2E2E2E2E2E2E2E2E2E2E2E2E2E2E2E2E2E2E2E2E2E2E2E2E2E2E2E2E2E2E2E2E2E2E2E2E2E2E2E2E2E2E2E2E2E2E2E2E2E2E2E2E2E2E2E2E2E2E2E2E2E2E2E2E2E2E2E2E2E2E2E2E2E2E2E2E2E2E2E2E2E2E2E2E2E2E2E2E2E2E2E2E2E2E2E2E2E2E2E2
310
E2E2E2E2F5E2E2E2E2E2E2E2E2E2E2E2E2E2E2E2F5E2E2E2E2E2E2E2E2E2E2E2F5F5E2E2E2E2E2E2E2E2E2E2E2F5E2E2E2E2E2E2E2E2E2E2E2E2E2E2E2F5E2E2E2E2E2E2E2E2E2E2E2E2E2E2E2E2E2E2E2E2E2E2E2E2E2E2E2E2E2E2E2E2E2E2E2E2E2E2E2E2E2E2E2E2E2E2E2E2E2E2E2E2E2E2E2E2E2E2E2E2E2E2E2E2E2
310
E2E2E2E2E2E2E2E2E2E2E2E2E2E2E2E2E2E2E2E2E2E2E2E2E2E2E2E2E2E2E2E2E2E2E2E2E2E2E2E2E2E2E2E2E2E2E2E2E2E2E2E2E2E2E2E2E2F5E2E2E2E2E2E2E2E2E2E2E2E2E2E2E2F5E2E2E2E2E2E2E2E2E2E2E2F5F5E2E2E2E2E2E2E2E2E2E2E2F5E2E2E2E2E2E2E2E2E2E2E2E2E2E2E2F5E2E2E2E2E2E2E2E2E2E2E2E2
310
E2E2E2E2E2E2E2E2E2E2E2E2E2E2E2E2E2E2E2E2E2E2E2E2E2E2E2E2E2E2E2E2E2E2E2E2E2E2E2E2E2E2E2E2E2E2E2E2E2E2E2E2E2E2E2E2E2E2E2E2E2E2E2E2E2E2E2E2E2E2E2E2E2E2E2E2E2E2E2E2E2E2E2E2E2E2E2E2E2E2E2E2E2E2E2E2E2E2E2E2E2E2E2E2E2E2E2E2E2E2F5E2E2E2E2E2E2E2E2E2E2E2E2E2E2E2F5
310
E2E2E2E2E2E2E2E2E2E2E2F5F5E2E2E2E2E2E2E2E2E2E2E2F5E2E2E2E2E2E2E2E2E2E2E2E2E2E2E2F5E2E2E2E2E2E2E2E2E2E2E2E2E2E2E2E2E2E2E2E2E2E2E2E2E2E2E2E2E2E2E2E2E2E2E2E2E2E2E2E2E2E2E2E2E2E2E2E2E2E2E2E2E2E2E2E2E2E2E2E2E2E2E2E2E2E2E2E2E2E2E2E2E2E2E2E2E2E2E2E2E2E2E2E2E2E2
310
E2E2E2E2E2E2E2E2E2E2E2E2E2E2E2E2E2E2E2E2E2E2E2E2E2E2E2E2E2E2E2E2E2E2E2E2F5E2E2E2E2E2E2E2E2E2E2E2E2E2E2E2F5E2E2E2E2E2E2E2E2E2E2E2F5F5E2E2E2E2E2E2E2E2E2E2E2F5E2E2E2E2E2E2E2E2E2E2E2E2E2E2E2F5E2E2E2E2E2E2E2E2E2E2E2E2E2E2E2E2E2E2E2E2E2E2E2E2E2E2E2E2E2E2E2E2E2
310
E2E2E2E2E2E2E2E2E2E2E2E2E2E2E2E2E2E2E2E2E2E2E2E2E2E2E2E2E2E2E2E2E2E2E2E2E2E2E2E2E2E2E2E2E2E2E2E2E2E2E2E2E2E2E2E2E2E2E2E2E2E2E2E2E2E2E2E2E2E2E2E2E2E2E2E2E2E2E2E2E2E2E2E2E2E2E2E2E2F5E2E2E2E2E2E2E2E2E2E2E2E2E2E2E2F5E2E2E2E2E2E2E2E2E2E2E2F5F5E2E2E2E2E2E2E2E2
310
E2E2E2F5E2E2E2E2E2E2E2E2E2E2E2E2E2E2E2F5E2E2E2E2E2E2E2E2E2E2E2E2E2E2E2E2E2E2E2E2E2E2E2E2E2E2E2E2E2E2E2E2E2E2E2E2E2E2E2E2E2E2E2E2E2E2E2E2E2E2E2E2E2E2E2E2E2E2E2E2E2E2E2E2E2E2E2E2E2E2E2E2E2E2E2E2E2E2E2E2E2E2E2E2E2E2E2E2E2E2E2E2E2E2E2E2E2E2E2E2E2E2E2E2E2E2E2
310
E2E2E2E2E2E2E2E2E2E2E2E2E2E2E2F5E2E2E2E2E2E2E2E2E2E2E2E2E2E2E2F5E2E2E2E2E2E2E2E2E2E2E2F5F5E2E2E2E2E2E2E2E2E2E2E2F5E2E2E2E2E2E2E2E2E2E2E2E2E2E2E2F5E2E2E2E2E2E2E2E2E2E2E2E2E2E2E2E2E2E2E2E2E2E2E2E2E2E2E2E2E2E2E2E2E2E2E2E2E2E2E2E2E2E2E2E2E2E2E2E2E2E2E2E2E2E2
310
E2E2E2E2E2E2E2E2E2E2E2E2E2E2E2E2E2E2E2E2E2E2E2E2E2E2E2E2E2E2E2E2E2E2E2E2E2E2E2E2E2E2E2E2E2E2E2E2E2E2E2E2E2E2E2E2E2E2E2E2E2E2E2E2E2E2E2E2F5E2E2E2E2E2E2E2E2E2E2E2E2E2E2E2F5E2E2E2E2E2E2E2E2E2E2E2F5F5E2E2E2E2E2E2E2E2E2E2E2F5E2E2E2E2E2E2E2E2E2E2E2E2E2E2E2F5E2
310
E2E2E2E2E2E2E2E2E2E2E2E2E2E2E2E2E2E2E2E2E2E2E2E2E2E2E2E2E2E2E2E2E2E2E2E2E2E2E2E2E2E2E2E2E2E2E2E2E2E2E2E2E2E2E2E2E2E2E2E2E2E2E2E2E2E2E2E2E2E2E2E2E2E2E2E2E2E2E2E2E2E2E2E2E2E2E2E2E2E2E2E2E2E2E2E2E2E2E2E2E2E2E2E2E2E2E2E2E2E2E2E2E2E2E2E2E2E2E2E2E2F5E2E2E2E2E2
310
E2E2E2E2E2E2E2E2E2E2F5E2E2E2E2E2E2E2E2E2E2E2F5F5E2E2E2E2E2E2E2E2E2E2E2F5E2E2E2E2E2E2E2E2E2E2E2E2E2E2E2F5E2E2E2E2E2E2E2E2E2E2E2E2E2E2E2E2E2E2E2E2E2E2E2E2E2E2E2E2E2E2E2E2E2E2E2E2E2E2E2E2E2E2E2E2E2E2E2E2E2E2E2E2E2E2E2E2E2E2E2E2E2E2E2E2E2E2E2E2E2E2E2E2E2E2E2
310
E2E2E2E2E2E2E2E2E2E2E2E2E2E2E2E2E2E2E2E2E2E2E2E2E2E2E2E2E2E2E2E2E2E2E2E2E2E2E2E2E2E2E2E2E2E2E2F5E2E2E2E2E2E2E2E2E2E2E2E2E2E2E2F5E2E2E2E2E2E2E2E2E2E2E2F5F5E2E2E2E2E2E2E2E2E2E2E2E2E2E2E2E2E2E2E2E2E2E2E2E2E2E2E2F5E2E2E2E2E2E2E2E2E2E2E2E2E2E2E2E2E2E2E2E2E2E2
310
E2E2E2E2E2E2E2E2E2E2E2E2E2E2E2E2E2E2E2E2E2E2E2E2E2E2E2E2E2E2E2E2E2E2E2E2E2E2E2E2E2E2E2E2E2E2E2E2E2E2E2E2E2E2E2E2E2E2E2E2E2E2E2E2E2E2E2E2E2E2E2E2E2E2E2E2E2E2E2E2E2E2E2E2E2E2E2E2E2E2E2E2E2E2E2E2E2E2E2E2F5E2E2E2E2E2E2E2E2E2E2E2E2E2E2E2E2E2E2E2E2E2E2E2E2E2E2
310
E2F5F5E2E2E2E2E2E2E2E2E2E2E2E2E2E2E2E2E2E2E2E2E2E2E2E2E2E2E2F5E2E2E2E2E2E2E2E2E2E2E2E2E2E2E2E2E2E2E2E2E2E2E2E2E2E2E2E2E2E2E2E2E2E2E2E2E2E2E2E2E2E2E2E2E2E2E2E2E2E2E2E2E2E2E2E2E2E2E2E2E2E2E2E2E2E2E2E2E2E2E2E2E2E2E2E2E2E2E2E2E2E2E2E2E2E2E2E2E2E2E2E2E2E2E2E2
310
E2E2E2E2E2E2E2E2E2E2E2E2E2E2E2E2E2E2E2E2E2E2E2E2E2E2F5E2E2E2E2E2E2E2E2E2E2E2E2E2E2E2E2E2E2E2E2E2E2E2E2E2E2E2F5F5E2E2E2E2E2E2E2E2E2E2E2E2E2E2E2E2E2E2E2E2E2E2E2E2E2E2E2F5E2E2E2E2E2E2E2E2E2E2E2E2E2E2E2E2E2E2E2E2E2E2E2E2E2E2E2E2E2E2E2E2E2E2E2E2E2E2E2E2E2E2E2
310
E2E2E2E2E2E2E2E2E2E2E2E2E2E2E2E2E2E2E2E2E2E2E2E2E2E2E2E2E2E2E2E2E2E2E2E2E2E2E2E2E2E2E2E2E2E2E2E2E2E2E2E2E2E2E2E2E2E2E2E2E2E2E2E2E2E2E2E2E2E2E2E2E2E2E2E2E2E2E2F5E2E2E2E2E2E2E2E2E2E2E2E2E2E2E2E2E2E2E2E2E2E2E2E2E2E2E2F5F5E2E2E2E2E2E2E2E2E2E2E2E2E2E2E2E2E2E2
310
E2E2E2E2E2E2E2E2E2F5E2E2E2E2E2E2E2E2E2E2E2E2E2E2E2E2E2E2E2E2E2E2E2E2E2E2E2E2E2E2E2E2E2E2E2E2E2E2E2E2E2E2E2E2E2E2E2E2E2E2E2E2E2E2E2E2E2E2E2E2E2E2E2E2E2E2E2E2E2E2E2E2E2E2E2E2E2E2E2E2E2E2E2E2E2E2E2E2E2E2E2E2E2E2E2E2E2E2E2E2E2E2E2E2E2E2E2E2E2E2E2E2E2E2E2E2E2
310
E2E2E2E2E2F5E2E2E2E2E2E2E2E2E2E2E2E2E2E2E2E2E2E2E2E2E2E2E2E2E2E2E2F5F5E2E2E2E2E2E2E2E2E2E2E2E2E2E2E2E2E2E2E2E2E2E2E2E2E2E2E2F5E2E2E2E2E2E2E2E2E2E2E2E2E2E2E2E2E2E2E2E2E2E2E2E2E2E2E2E2E2E2E2E2E2E2E2E2E2E2E2E2E2E2E2E2E2E2E2E2E2E2E2E2E2E2E2E2E2E2E2E2E2E2E2E2
310
E2E2E2E2E2E2E2E2E2E2E2E2E2E2E2E2E2E2E2E2E2E2E2E2E2E2E2E2E2E2E2E2E2E2E2E2E2E2E2E2E2E2E2E2E2E2E2E2E2E2E2E2E2E2E2E2E2E2F5E2E2E2E2E2E2E2E2E2E2E2E2E2E2E2E2E2E2E2E2E2E2E2E2E2E2E2F5F5E2E2E2E2E2E2E2E2E2E2E2E2E2E2E2E2E2E2E2E2E2E2E2E2E2E2E2F5E2E2E2E2E2E2E2E2E2E2E2
310
E2E2E2E2E2E2E2E2E2E2E2E2E2E2E2E2E2E2E2E2E2E2E2E2E2E2E2E2E2E2E2E2E2E2E2E2E2E2E2E2E2E2E2E2E2E2E2E2E2E2E2E2E2E2E2E2E2E2E2E2E2E2E2E2E2E2E2E2E2E2E2E2E2E2E2E2E2E2E2E2E2E2E2E2E2E2E2E2E2E2E2E2E2E2E2E2E2E2E2E2E2E2E2E2E2E2E2E2E2E2E2F5E2E2E2E2E2E2E2E2E2E2E2E2E2E2E2
310
E2E2E2E2E2E2E2E2E2E2E2E2F5F5E2E2E2E2E2E2E2E2E2E2E2E2E2E2E2E2E2E2E2E2E2E2E2E2E2E2E2F5E2E2E2E2E2E2E2E2E2E2E2E2E2E2E2E2E2E2E2E2E2E2E2E2E2E2E2E2E2E2E2E2E2E2E2E2E2E2E2E2E2E2E2E2E2E2E2E2E2E2E2E2E2E2E2E2E2E2E2E2E2E2E2E2E2E2E2E2E2E2E2E2E2E2E2E2E2E2E2E2E2E2E2E2E2
310
E2E2E2E2E2E2E2E2E2E2E2E2E2E2E2E2E2E2E2E2E2E2E2E2E2E2E2E2E2E2E2E2E2E2E2E2E2F5E2E2E2E2E2E2E2E2E2E2E2E2E2E2E2E2E2E2E2E2E2E2E2E2E2E2E2F5F5E2E2E2E2E2E2E2E2E2E2E2E2E2E2E2E2E2E2E2E2E2E2E2E2E2E2E2F5E2E2E2E2E2E2E2E2E2E2E2E2E2E2E2E2E2E2E2E2E2E2E2E2E2E2E2E2E2E2E2E2
310
E2E2E2E2E2E2E2E2E2E2E2E2E2E2E2E2E2E2E2E2E2E2E2E2E2E2E2E2E2E2E2E2E2E2E2E2E2E2E2E2E2E2E2E2E2E2E2E2E2E2E2E2E2E2E2E2E2E2E2E2E2E2E2E2E2E2E2E2E2E2E2E2E2E2E2E2E2E2E2E2E2E2E2E2E2E2E2E2E2E2F5E2E2E2E2E2E2E2E2E2E2E2E2E2E2E2E2E2E2E2E2E2E2E2E2E2E2E2F5F5E2E2E2E2E2E2E2
310
E2E2E2E2E2E2E2E2E2E2E2E2E2E2E2E2E2E2E2E2F5E2E2E2E2E2E2E2E2E2E2E2E2E2E2E2E2E2E2E2E2E2E2E2E2E2E2E2E2E2E2E2E2E2E2E2E2E2E2E2E2E2E2E2E2E2E2E2E2E2E2E2E2E2E2E2E2E2E2E2E2E2E2E2E2E2E2E2E2E2E2E2E2E2E2E2E2E2E2E2E2E2E2E2E2E2E2E2E2E2E2E2E2E2E2E2E2E2E2E2E2E2E2E2E2E2E2
310
E2E2E2E2E2E2E2E2E2E2E2E2E2E2E2E2F5E2E2E2E2E2E2E2E2E2E2E2E2E2E2E2E2E2E2E2E2E2E2E2E2E2E2E2F5F5E2E2E2E2E2E2E2E2E2E2E2F5E2E2E2E2E2E2E2E2E2E2E2E2E2E2E2F5E2E2E2E2E2E2E2E2E2E2E2E2E2E2E2E2E2E2E2E2E2E2E2E2E2E2E2E2E2E2E2E2E2E2E2E2E2E2E2E2E2E2E2E2E2E2E2E2E2E2E2E2E2
310
E2E2E2E2E2E2E2E2E2E2E2E2E2E2E2E2E2E2E2E2E2E2E2E2E2E2E2E2E2E2E2E2E2E2E2E2E2E2E2E2E2E2E2E2E2E2E2E2E2E2E2E2E2E2E2E2E2E2E2E2E2E2E2E2E2E2E2E2E2F5E2E2E2E2E2E2E2E2E2E2E2E2E2E2E2F5E2E2E2E2E2E2E2E2E2E2E2F5F5E2E2E2E2E2E2E2E2E2E2E2F5E2E2E2E2E2E2E2E2E2E2E2E2E2E2E2F5
310
E2E2E2E2E2E2E2E2E2E2E2E2E2E2E2E2E2E2E2E2E2E2E2E2E2E2E2E2E2E2E2E2E2E2E2E2E2E2E2E2E2E2E2E2E2E2E2E2E2E2E2E2E2E2E2E2E2E2E2E2E2E2E2E2E2E2E2E2E2E2E2E2E2E2E2E2E2E2E2E2E2E2E2E2E2E2E2E2E2E2E2E2E2E2E2E2E2E2E2E2E2E2E2E2E2E2E2E2E2E2E2E2E2E2E2E2E2E2E2E2E2E2F5E2E2E2E2
310
E2E2E2E2E2E2E2E2E2E2E2F5E2E2E2E2E2E2E2E2E2E2E2F5F5E2E2E2E2E2E2E2E2E2E2E2F5E2E2E2E2E2E2E2E2E2E2E2E2E2E2E2F5E2E2E2E2E2E2E2E2E2E2E2E2E2E2E2E2E2E2E2E2E2E2E2E2E2E2E2E2E2E2E2E2E2E2E2E2E2E2E2E2E2E2E2E2E2E2E2E2E2E2E2E2E2E2E2E2E2E2E2E2E2E2E2E2E2E2E2E2E2E2E2E2E2E2
310
E2E2E2E2E2E2E2E2E2E2E2E2E2E2E2E2E2E2E2E2E2E2E2E2E2E2E2E2E2E2E2E2E2E2E2E2E2E2E2E2E2E2E2E2E2E2E2E2F5E2E2E2E2E2E2E2E2E2E2E2E2E2E2E2F5E2E2E2E2E2E2E2E2E2E2E2F5F5E2E2E2E2E2E2E2E2E2E2E2F5E2E2E2E2E2E2E2E2E2E2E2E2E2E2E2F5E2E2E2E2E2E2E2E2E2E2E2E2E2E2E2E2E2E2E2E2E2
310
E2E2E2E2E2E2E2E2E2E2E2E2E2E2E2E2E2E2E2E2E2E2E2E2E2E2E2E2E2E2E2E2E2E2E2E2E2E2E2E2E2E2E2E2E2E2E2E2E2E2E2E2E2E2E2E2E2E2E2E2E2E2E2E2E2E2E2E2E2E2E2E2E2E2E2E2E2E2E2E2E2E2E2E2E2E2E2E2E2E2E2E2E2E2E2E2E2E2E2E2E2F5E2E2E2E2E2E2E2E2E2E2E2E2E2E2E2F5E2E2E2E2E2E2E2E2E2
310
E2E2F5F5E2E2E2E2E2E2E2E2E2E2E2F5E2E2E2E2E2E2E2E2E2E2E2E2E2E2E2F5E2E2E2E2E2E2E2E2E2E2E2E2E2E2E2E2E2E2E2E2E2E2E2E2E2E2E2E2E2E2E2E2E2E2E2E2E2E2E2E2E2E2E2E2E2E2E2E2E2E2E2E2E2E2E2E2E2E2E2E2E2E2E2E2E2E2E2E2E2E2E2E2E2E2E2E2E2E2E2E2E2E2E2E2E2E2E2E2E2E2E2E2E2E2E2
310
E2E2E2E2E2E2E2E2E2E2E2E2E2E2E2E2E2E2E2E2E2E2E2E2E2E2E2F5E2E2E2E2E2E2E2E2E2E2E2E2E2E2E2F5E2E2E2E2E2E2E2E2E2E2E2F5F5E2E2E2E2E2E2E2E2E2E2E2F5E2E2E2E2E2E2E2E2E2E2E2E2E2E2E2F5E2E2E2E2E2E2E2E2E2E2E2E2E2E2E2E2E2E2E2E2E2E2E2E2E2E2E2E2E2E2E2E2E2E2E2E2E2E2E2E2E2E2
310
E2E2E2E2E2E2E2E2E2E2E2E2E2E2E2E2E2E2E2E2E2E2E2E2E2E2E2E2E2E2E2E2E2E2E2E2E2E2E2E2E2E2E2E2E2E2E2E2E2E2E2E2E2E2E2E2E2E2E2E2E2E2E2E2E2E2E2E2E2E2E2E2E2E2E2E2E2E2E2E2F5E2E2E2E2E2E2E2E2E2E2E2E2E2E2E2F5E2E2E2E2E2E2E2E2E2E2E2F5F5E2E2E2E2E2E2E2E2E2E2E2F5E2E2E2E2E2
310
E2E2E2E2E2E2E2E2E2E2F5E2E2E2E2E2E2E2E2E2E2E2E2E2E2E2E2E2E2E2E2E2E2E2E2E2E2E2E2E2E2E2E2E2E2E2E2E2E2E2E2E2E2E2E2E2E2E2E2E2E2E2E2E2E2E2E2E2E2E2E2E2E2E2E2E2E2E2E2E2E2E2E2E2E2E2E2E2E2E2E2E2E2E2E2E2E2E2E2E2E2E2E2E2E2E2E2E2E2E2E2E2E2E2E2E2E2E2E2E2E2E2E2E2E2E2E2
310
E2E2E2E2E2E2F5E2E2E2E2E2E2E2E2E2E2E2E2E2E2E2F5E2E2E2E2E2E2E2E2E2E2E2F5F5E2E2E2E2E2E2E2E2E2E2E2F5E2E2E2E2E2E2E2E2E2E2E2E2E2E2E2F5E2E2E2E2E2E2E2E2E2E2E2E2E2E2E2E2E2E2E2E2E2E2E2E2E2E2E2E2E2E2E2E2E2E2E2E2E2E2E2E2E2E2E2E2E2E2E2E2E2E2E2E2E2E2E2E2E2E2E2E2E2E2E2
310
E2E2E2E2E2E2E2E2E2E2E2E2E2E2E2E2E2E2E2E2E2E2E2E2E2E2E2E2E2E2E2E2E2E2E2E2E2E2E2E2E2E2E2E2E2E2E2E2E2E2E2E2E2E2E2E2E2E2E2F5E2E2E2E2E2E2E2E2E2E2E2E2E2E2E2F5E2E2E2E2E2E2E2E2E2E2E2F5F5E2E2E2E2E2E2E2E2E2E2E2F5E2E2E2E2E2E2E2E2E2E2E2E2E2E2E2F5E2E2E2E2E2E2E2E2E2E2
310
E2E2E2E2E2E2E2E2E2E2E2E2E2E2E2E2E2E2E2E2E2E2E2E2E2E2E2E2E2E2E2E2E2E2E2E2E2E2E2E2E2E2E2E2E2E2E2E2E2E2E2E2E2E2E2E2E2E2E2E2E2E2E2E2E2E2E2E2E2E2E2E2E2E2E2E2E2E2E2E2E2E2E2E2E2E2E2E2E2E2E2E2E2E2E2E2E2E2E2E2E2E2E2E2E2E2E2E2E2E2E2E2F5E2E2E2E2E2E2E2E2E2E2E2E2E2E2
310
E2F5E2E2E2E2E2E2E2E2E2E2E2F5F5E2E2E2E2E2E2E2E2E2E2E2F5E2E2E2E2E2E2E2E2E2E2E2E2E2E2E2F5E2E2E2E2E2E2E2E2E2E2E2E2E2E2E2E2E2E2E2E2E2E2E2E2E2E2E2E2E2E2E2E2E2E2E2E2E2E2E2E2E2E2E2E2E2E2E2E2E2E2E2E2E2E2E2E2E2E2E2E2E2E2E2E2E2E2E2E2E2E2E2E2E2E2E2E2E2E2E2E2E2E2E2E2
310
E2E2E2E2E2E2E2E2E2E2E2E2E2E2E2E2E2E2E2E2E2E2E2E2E2E2E2E2E2E2E2E2E2E2E2E2E2E2F5E2E2E2E2E2E2E2E2E2E2E2E2E2E2E2F5E2E2E2E2E2E2E2E2E2E2E2F5F5E2E2E2E2E2E2E2E2E2E2E2F5E2E2E2E2E2E2E2E2E2E2E2E2E2E2E2F5E2E2E2E2E2E2E2E2E2E2E2E2E2E2E2E2E2E2E2E2E2E2E2E2E2E2E2E2E2E2E2
310
E2E2E2E2E2E2E2E2E2E2E2E2E2E2E2E2E2E2E2E2E2E2E2E2E2E2E2E2E2E2E2E2E2E2E2E2E2E2E2E2E2E2E2E2E2E2E2E2E2E2E2E2E2E2E2E2E2E2E2E2E2E2E2E2E2E2E2E2E2E2E2E2E2E2E2E2E2E2E2E2E2E2E2E2E2E2E2E2E2E2E2F5E2E2E2E2E2E2E2E2E2E2E2E2E2E2E2F5E2E2E2E2E2E2E2E2E2E2E2F5F5E2E2E2E2E2E2
310
E2E2E2E2E2F5E2E2E2E2E2E2E2E2E2E2E2E2E2E2E2F5E2E2E2E2E2E2E2E2E2E2E2E2E2E2E2E2E2E2E2E2E2E2E2E2E2E2E2E2E2E2E2E2E2E2E2E2E2E2E2E2E2E2E2E2E2E2E2E2E2E2E2E2E2E2E2E2E2E2E2E2E2E2E2E2E2E2E2E2E2E2E2E2E2E2E2E2E2E2E2E2E2E2E2E2E2E2E2E2E2E2E2E2E2E2E2E2E2E2E2E2E2E2E2E2E2
310
E2E2E2E2E2E2E2E2E2E2E2E2E2E2E2E2E2F5E2E2E2E2E2E2E2E2E2E2E2E2E2E2E2F5E2E2E2E2E2E2E2E2E2E2E2F5F5E2E2E2E2E2E2E2E2E2E2E2F5E2E2E2E2E2E2E2E2E2E2E2E2E2E2E2F5E2E2E2E2E2E2E2E2E2E2E2E2E2E2E2E2E2E2E2E2E2E2E2E2E2E2E2E2E2E2E2E2E2E2E2E2E2E2E2E2E2E2E2E2E2E2E2E2E2E2E2E2
310
E2E2E2E2E2E2E2E2E2E2E2E2E2E2E2E2E2E2E2E2E2E2E2E2E2E2E2E2E2E2E2E2E2E2E2E2E2E2E2E2E2E2E2E2E2E2E2E2E2E2E2E2E2E2E2E2E2E2E2E2E2E2E2E2E2E2E2E2E2E2F5E2E2E2E2E2E2E2E2E2E2E2E2E2E2E2F5E2E2E2E2E2E2E2E2E2E2E2F5F5E2E2E2E2E2E2E2E2E2E2E2F5E2E2E2E2E2E2E2E2E2E2E2E2E2E2E2
310
F5E2E2E2E2E2E2E2E2E2E2E2E2E2E2E2E2E2E2E2E2E2E2E2E2E2E2E2E2E2E2E2E2E2E2E2E2E2E2E2E2E2E2E2E2E2E2E2E2E2E2E2E2E2E2E2E2E2E2E2E2E2E2E2E2E2E2E2E2E2E2E2E2E2E2E2E2E2E2E2E2E2E2E2E2E2E2E2E2E2E2E2E2E2E2E2E2E2E2E2E2E2E2E2E2E2E2E2E2E2E2E2E2E2E2E2E2E2E2E2E2E2E2F5E2E2E2
310
E2E2E2E2E2E2E2E2E2E2E2E2F5E2E2E2E2E2E2E2E2E2E2E2F5F5E2E2E2E2E2E2E2E2E2E2E2F5E2E2E2E2E2E2E2E2E2E2E2E2E2E2E2F5E2E2E2E2E2E2E2E2E2E2E2E2E2E2E2E2E2E2E2E2E2E2E2E2E2E2E2E2E2E2E2E2E2E2E2E2E2E2E2E2E2E2E2E2E2E2E2E2E2E2E2E2E2E2E2E2E2E2E2E2E2E2E2E2E2E2E2E2E2E2E2E2E2
310
E2E2E2E2E2E2E2E2E2E2E2E2E2E2E2E2E2E2E2E2E2E2E2E2E2E2E2E2E2E2E2E2E2E2E2E2E2E2E2E2E2E2E2E2E2E2E2E2E2F5E2E2E2E2E2E2E2E2E2E2E2E2E2E2E2F5E2E2E2E2E2E2E2E2E2E2E2F5F5E2E2E2E2E2E2E2E2E2E2E2E2E2E2E2E2E2E2E2E2E2E2E2E2E2E2E2F5E2E2E2E2E2E2E2E2E2E2E2E2E2E2E2E2E2E2E2E2
310
E2E2E2E2E2E2E2E2E2E2E2E2E2E2E2E2E2E2E2E2E2E2E2E2E2E2E2E2E2E2E2E2E2E2E2E2E2E2E2E2E2E2E2E2E2E2E2E2E2E2E2E2E2E2E2E2E2E2E2E2E2E2E2E2E2E2E2E2E2E2E2E2E2E2E2E2E2E2E2E2E2E2E2E2E2E2E2E2E2E2E2E2E2E2E2E2E2E2E2E2E2E2F5E2E2E2E2E2E2E2E2E2E2E2E2E2E2E2E2E2E2E2E2E2E2E2E2
310
E2E2E2F5F5E2E2E2E2E2E2E2E2E2E2E2E2E2E2E2E2E2E2E2E2E2E2E2E2E2E2E2F5E2E2E2E2E2E2E2E2E2E2E2E2E2E2E2E2E2E2E2E2E2E2E2E2E2E2E2E2E2E2E2E2E2E2E2E2E2E2E2E2E2E2E2E2E2E2E2E2E2E2E2E2E2E2E2E2E2E2E2E2E2E2E2E2E2E2E2E2E2E2E2E2E2E2E2E2E2E2E2E2E2E2E2E2E2E2E2E2E2E2E2E2E2E2
310
E2E2E2E2E2E2E2E2E2E2E2E2E2E2E2E2E2E2E2E2E2E2E2E2E2E2E2E2F5E2E2E2E2E2E2E2E2E2E2E2E2E2E2E2E2E2E2E2E2E2E2E2E2E2E2E2F5F5E2E2E2E2E2E2E2E2E2E2E2E2E2E2E2E2E2E2E2E2E2E2E2E2E2E2E2F5E2E2E2E2E2E2E2E2E2E2E2E2E2E2E2E2E2E2E2E2E2E2E2E2E2E2E2E2E2E2E2E2E2E2E2E2E2E2E2E2E2
310
E2E2E2E2E2E2E2E2E2E2E2E2E2E2E2E2E2E2E2E2E2E2E2E2E2E2E2E2E2E2E2E2E2E2E2E2E2E2E2E2E2E2E2E2E2E2E2E2E2E2E2E2E2E2E2E2E2E2E2E2E2E2E2E2E2E2E2E2E2E2E2E2E2E2E2E2E2E2E2E2E2F5E2E2E2E2E2E2E2E2E2E2E2E2E2E2E2E2E2E2E2E2E2E2E2E2E2E2E2F5F5E2E2E2E2E2E2E2E2E2E2E2E2E2E2E2E2
310
E2E2E2E2E2E2E2E2E2E2E2F5F5F5F5F5F5F5F5F5F5F5F5F5F5F5F5F5F5F5F5F5F5F5F5F5F5F5F5F5F5F5F5F5F5F5F5F5F5F5F5F5F5F5F5F5F5F5F5F5F5F5F5F5F5F5F5F5F5F5F5F5F5F5F5F5F5F5F5F5F5F5F5F5F5F5F5F5F5F5F5F5F5F5F5F5F5F5F5F5F5F5F5F5F5F5F5F5F5F5F5F5F5F5F5F5F5F5F5F5F5F5F5F5F5F5F5
310
F5F5F5F5F5F5F5F5E2E2E2E2E2E2E2E2E2E2E2E2E2E2E2E2E2E2E2E2E2E2E2E2E2E2E2F5F5E2E2E2E2E2E2E2E2E2E2E2E2E2E2E2E2E2E2E2E2E2E2E2E2E2E2E2E2E2E2E2E2E2E2E2E2E2E2E2E2E2E2E2E2E2E2E2E2E2E2E2E2E2E2E2E2E2E2E2E2E2E2E2E2E2E2E2E2E2E2E2E2E2E2E2E2E2E2E2E2E2E2E2E2E2E2E2E2E2E2
310
E2E2E2E2E2E2E2E2E2E2E2E2E2E2E2E2E2E2E2E2E2E2E2E2E2E2E2E2E2E2E2E2E2E2E2E2E2E2E2E2E2E2E2E2E2E2E2E2E2E2E2E2E2E2E2E2E2E2E2E2E2E2E2E2E2E2E2E2E2E2E2E2E2E2E2E2E2E2E2E2E2E2E2E2E2E2E2E2F5F5E2E2E2E2E2E2E2E2E2E2E2E2E2E2E2E2E2E2E2E2E2E2E2E2E2E2E2E2E2E2E2E2E2E2E2E2E2
310
E2E2E2E2E2E2E2E2E2E2E2E2E2E2E2E2E2E2E2E2E2E2E2E2E2E2E2E2E2E2E2E2E2E2E2E2E2E2E2E2E2E2E2E2E2E2E2E2E2E2E2E2E2E2E2E2E2E2E2E2E2E2E2E2E2E2E2E2E2E2E2E2E2E2E2E2E2E2E2E2E2E2E2E2E2E2E2E2E2E2E2E2E2E2E2E2E2E2E2E2E2E2E2E2E2E2E2E2E2E2E2E2E2E2E2E2E2E2E2E2E2E2E2E2E2E2E2
310
E2E2E2E2E2E2E2E2E2E2E2E2E2E2F5F5E2E2E2E2E2E2E2E2E2E2E2E2E2E2E2E2E2E2E2E2E2E2E2E2E2E2E2E2E2E2E2E2E2E2E2E2E2E2E2E2E2E2E2E2E2E2E2E2E2E2E2E2E2E2E2E2E2E2E2E2E2E2E2E2E2E2E2E2E2E2E2E2E2E2E2E2E2E2E2E2E2E2E2E2E2E2E2E2E2E2E2E2E2E2E2E2E2E2E2E2E2E2E2E2E2E2E2E2E2E2E2
310
E2E2E2E2E2E2E2E2E2E2E2E2E2E2E2E2E2E2E2E2E2E2E2E2E2E2E2E2E2E2E2E2E2E2E2E2E2E2E2E2E2E2E2E2E2E2E2E2E2E2E2E2E2E2E2E2E2E2E2E2E2E2E2E2E2E2E2F5F5E2E2E2E2E2E2E2E2E2E2E2E2E2E2E2E2E2E2E2E2E2E2E2E2E2E2E2E2E2E2E2E2E2E2E2E2E2E2E2E2E2E2E2E2E2E2E2E2E2E2E2E2E2E2E2E2E2E2
310
E2E2E2E2E2E2E2E2E2E2E2E2E2E2E2E2E2E2E2E2E2E2E2E2E2E2E2E2E2E2E2E2E2E2E2E2E2E2E2E2E2E2E2E2E2E2E2E2E2E2E2E2E2E2E2E2E2E2E2E2E2E2E2E2E2E2E2E2E2E2E2E2E2E2E2E2E2E2E2E2E2E2E2E2E2E2E2E2E2E2E2E2E2E2E2E2E2E2E2E2E2E2E2E2E2E2E2E2E2E2E2E2E2E2E2E2E2E2E2E2F5F5E2E2E2E2E2
310
E2E2E2E2E2E2F5E2E2E2E2E2E2E2E2E2E2E2E2E2E2E2E2E2E2E2E2E2E2E2E2E2E2E2E2E2E2E2E2E2E2E2E2E2E2E2E2E2E2E2E2E2E2E2E2E2E2E2E2E2E2E2E2E2E2E2E2E2E2E2E2E2E2E2E2E2E2E2E2E2E2E2E2E2E2E2E2E2E2E2E2E2E2E2E2E2E2E2E2E2E2E2E2E2E2E2E2E2E2E2E2E2E2E2E2E2E2E2E2E2E2E2E2E2E2E2E2
310
E2E2E2E2E2E2E2E2E2E2E2E2E2E2E2E2E2E2E2E2E2E2E2E2E2E2E2E2E2E2E2E2E2E2F5E2E2E2E2E2E2E2E2E2E2E2F5F5E2E2E2E2E2E2E2E2E2E2E2F5E2E2E2E2E2E2E2E2E2E2E2E2E2E2E2E2E2E2E2E2E2E2E2E2E2E2E2E2E2E2E2E2E2E2E2E2E2E2E2E2E2E2E2E2E2E2E2E2E2E2E2E2E2E2E2E2E2E2E2E2E2E2E2E2E2E2E2
310
E2E2E2E2E2E2E2E2E2E2E2E2E2E2E2E2E2E2E2E2E2E2E2E2E2E2E2E2E2E2E2E2E2E2E2E2E2E2E2E2E2E2E2E2E2E2E2E2E2E2E2E2E2E2E2E2E2E2E2E2E2E2E2E2E2E2E2E2E2E2E2E2E2E2E2E2E2E2E2E2E2E2E2E2E2E2E2F5E2E2E2E2E2E2E2E2E2E2E2F5F5E2E2E2E2E2E2E2E2E2E2E2F5E2E2E2E2E2E2E2E2E2E2E2E2E2E2
310
E2E2E2E2E2E2E2E2E2E2E2E2E2E2E2E2E2E2E2E2E2E2E2E2E2E2E2E2E2E2E2E2E2E2E2E2E2E2E2E2E2E2E2E2E2E2E2E2E2E2E2E2E2E2E2E2E2E2E2E2E2E2E2E2E2E2E2E2E2E2E2E2E2E2E2E2E2E2E2E2E2E2E2E2E2E2E2E2E2E2E2E2E2E2E2E2E2E2E2E2E2E2E2E2E2E2E2E2E2E2E2E2E2E2E2E2E2E2E2E2E2E2E2E2E2E2E2
310
E2E2E2E2E2E2E2E2E2E2E2E2E2F5E2E2E2E2E2E2E2E2E2E2E2F5F5E2E2E2E2E2E2E2E2E2E2E2F5E2E2E2E2E2E2E2E2E2E2E2E2E2E2E2E2E2E2E2E2E2E2E2E2E2E2E2E2E2E2E2E2E2E2E2E2E2E2E2E2E2E2E2E2E2E2E2E2E2E2E2E2E2E2E2E2E2E2E2E2E2E2E2E2E2E2E2E2E2E2E2E2E2E2E2E2E2E2E2E2E2E2E2E2E2E2E2E2
310
E2E2E2E2E2E2E2E2E2E2E2E2E2E2E2E2E2E2E2E2E2E2E2E2E2E2E2E2E2E2E2E2E2E2E2E2E2E2E2E2E2E2E2E2E2E2E2E2E2E2E2E2E2E2E2E2E2E2E2E2E2E2E2E2E2E2F5E2E2E2E2E2E2E2E2E2E2E2F5F5E2E2E2E2E2E2E2E2E2E2E2F5E2E2E2E2E2E2E2E2E2E2E2E2E2E2E2E2E2E2E2E2E2E2E2E2E2E2E2E2E2E2E2E2E2E2E2
310
E2E2E2E2E2E2E2E2E2E2E2E2E2E2E2E2E2E2E2E2E2E2E2E2E2E2E2E2E2E2E2E2E2E2E2E2E2E2E2E2E2E2E2E2E2E2E2E2E2E2E2E2E2E2E2E2E2E2E2E2E2E2E2E2E2E2E2E2E2E2E2E2E2E2E2E2E2E2E2E2E2E2E2E2E2E2E2E2E2E2E2E2E2E2E2E2E2E2E2E2E2E2E2E2E2E2E2E2E2E2E2E2E2E2E2E2E2E2E2F5E2E2E2E2E2E2E2
310
E2E2E2E2F5F5E2E2E2E2E2E2E2E2E2E2E2F5E2E2E2E2E2E2E2E2E2E2E2E2E2E2E2E2E2E2E2E2E2E2E2E2E2E2E2E2E2E2E2E2E2E2E2E2E2E2E2E2E2E2E2E2E2E2E2E2E2E2E2E2E2E2E2E2E2E2E2E2E2E2E2E2E2E2E2E2E2E2E2E2E2E2E2E2E2E2E2E2E2E2E2E2E2E2E2E2E2E2E2E2E2E2E2E2E2E2E2E2E2E2E2E2E2E2E2E2E2
310
E2E2E2E2E2E2E2E2E2E2E2E2E2E2E2E2E2E2E2E2E2E2E2E2E2E2E2E2E2E2E2E2E2E2E2E2E2E2E2E2E2E2E2E2E2F5E2E2E2E2E2E2E2E2E2E2E2F5F5E2E2E2E2E2E2E2E2E2E2E2F5E2E2E2E2E2E2E2E2E2E2E2E2E2E2E2E2E2E2E2E2E2E2E2E2E2E2E2E2E2E2E2E2E2E2E2E2E2E2E2E2E2E2E2E2E2E2E2E2E2E2E2E2E2E2E2E2
310
E2E2E2E2E2E2E2E2E2E2E2E2E2E2E2E2E2E2E2E2E2E2E2E2E2E2E2E2E2E2E2E2E2E2E2E2E2E2E2E2E2E2E2E2E2E2E2E2E2E2E2E2E2E2E2E2E2E2E2E2E2E2E2E2E2E2E2E2E2E2E2E2E2E2E2E2E2E2E2E2E2E2E2E2E2E2E2E2E2E2E2E2E2E2E2E2E2E2F5E2E2E2E2E2E2E2E2E2E2E2F5F5E2E2E2E2E2E2E2E2E2E2E2F5F5F5F5
310
F5F5F5F5F5E2E2E2E2E2E2E2E2E2F5F5F5F5F5F5F5F5F5F5F5F5F5F5F5F5F5E2E2E2E2E2E2E2E2E2F5F5F5F5F5F5F5F5F5F5F5F5F5F5F5F5E2E2E2E2E2E2E2E2E2E2F5F5F5F5F5F5F5F5F5F5F5F5F5F5F5F5E2E2E2E2E2E2E2E2E2E2F5F5F5F5F5F5F5F5F5F5F5F5F5F5F5F5E2E2E2E2E2E2E2E2E2F5F5F5F5F5F5F5F5F5F5
310
F5F5F5F5F5F5F5E2E2E2E2E2E2E2E2E2F5F5F5F5F5F5F5F5F5E2E2E2E2E2E2E2E2E2E2E2F5F5E2E2E2E2E2E2E2E2E2E2E2E2E2E2E2E2E2E2E2E2E2E2E2E2E2E2E2E2E2E2E2E2E2E2E2E2E2E2E2E2E2E2E2E2E2E2E2E2E2E2E2E2E2E2E2E2E2E2E2E2E2E2E2E2E2E2E2E2E2E2E2E2E2E2E2E2E2E2E2E2E2E2E2E2E2E2E2E2E2
310
E2E2E2E2E2E2E2E2E2E2E2E2E2E2E2E2E2E2E2E2E2E2E2E2E2E2E2E2E2E2E2E2E2E2E2E2E2E2E2E2E2E2E2E2E2E2E2E2E2E2E2E2E2E2E2E2E2E2E2E2E2E2E2E2E2E2E2E2E2E2E2E2E2E2E2E2E2E2E2E2E2E2E2E2E2E2E2E2E2F5F5E2E2E2E2E2E2E2E2E2E2E2E2E2E2E2E2E2E2E2E2E2E2E2E2E2E2E2E2E2E2E2E2E2E2E2E2
310
E2E2E2E2E2E2E2E2E2E2E2E2E2E2E2E2E2E2E2E2E2E2E2E2E2E2E2E2E2E2E2E2E2E2E2E2E2E2E2E2E2E2E2E2E2E2E2E2E2E2E2E2E2E2E2E2E2E2E2E2E2E2E2E2E2E2E2E2E2E2E2E2E2E2E2E2E2E2E2E2E2E2E2E2E2E2E2E2E2E2E2E2E2E2E2E2E2E2E2E2E2E2E2E2E2E2E2E2E2E2E2E2E2E2E2E2E2E2E2E2E2E2E2E2E2E2E2
310
E2E2E2E2E2E2E2E2E2E2E2E2E2E2E2F5F5E2E2E2E2E2E2E2E2E2E2E2E2E2E2E2E2E2E2E2E2E2E2E2E2E2E2E2E2E2E2E2E2E2E2E2E2E2E2E2E2E2E2E2E2E2E2E2E2E2E2E2E2E2E2E2E2E2E2E2E2E2E2E2E2E2E2E2E2E2E2E2E2E2E2E2E2E2E2E2E2E2E2E2E2E2E2E2E2E2E2E2E2E2E2E2E2E2E2E2E2E2E2E2E2E2E2E2E2E2E2
310
E2E2E2E2E2E2E2E2E2E2E2E2E2E2E2E2E2E2E2E2E2E2E2E2E2E2E2E2E2E2E2E2E2E2E2E2E2E2E2E2E2E2E2E2E2E2E2E2E2E2E2E2E2E2E2E2E2E2E2E2E2E2E2E2E2E2E2E2F5F5F5F5F5F5F5F5F5F5F5F5F5F5F5F5F5F5F5F5F5F5F5F5F5F5F5F5F5F5F5F5F5F5F5F5F5F5F5F5F5F5F5F5F5F5F5F5F5F5F5F5F5F5F5F5F5F5F5
310
F5F5F5F5F5F5F5F5F5F5F5F5F5F5F5F5F5F5F5F5F5F5F5F5F5F5F5F5F5F5F5F5F5F5F5F5F5F5F5F5F5F5F5F5F5F5F5F5F5F5F5F5F5F5F5F5F5F5F5F5F5F5F5F5F5F5F5F5F5F5F5F5F5F5F5F5F5F5F5F5F5F5F5F5F5F5F5F5F5F5F5F5F5F5F5F5F5F5F5F5F5F5F5F5F5F5F5F5F5F5F5F5F5F5F5F5F5F5F5F5F5F5EFEFEFEFEF
310
EFEFEFEFEFEFEFEFEFEFEFEFEFEFEFEFEFEFEFEFEFEFEFEFEFEFEFEFEFEFEFEFEFEFEFEFEFEFEFEFEFEFEFEFEFEFEFEFEFEFEFEFEFEFEFEFEFEFEFEFEFEFEFEFEFEFEFEFEFEFEFEFEFEFEFEFEFEFEFEFEFEFEFEFEFEFEFEFEFEFEFEFEFEFEFEFEFEFEFEFEFEFEFEFEFEFEFEFEFEFEFEFEFEFEFEFEFEFEFEFEFEFEFEFEFEFEF
310
EFEFEFEFEFEFEFEFEFEFEFEFEFEFEFEFEFEFEFEFEFEFEFEFEFEFEFEFEFEFEFEFEFEFEFEFEFEFEFEFEFEFEFEFEFEFEFEF
  0
ENDSEC
  0
EOF
