  0
SECTION
  2
HEADER
  9
$ACADVER
  1
AC1021
  9
$ACADMAINTVER
 70
     1
  9
$DWGCODEPAGE
  3
ANSI_1252
  9
$LASTSAVEDBY
  1
BJB
  9
$INSBASE
 10
-6441.848698920316
 20
-22176.44671706723
 30
0.0
  9
$EXTMIN
 10
-8741.897801477078
 20
-24078.30020900098
 30
-0.0000000000000058
  9
$EXTMAX
 10
-6198.130075581721
 20
-22175.89764644524
 30
0.0000000000000104
  9
$LIMMIN
 10
0.0
 20
0.0
  9
$LIMMAX
 10
420.0
 20
297.0
  9
$ORTHOMODE
 70
     1
  9
$REGENMODE
 70
     1
  9
$FILLMODE
 70
     1
  9
$QTEXTMODE
 70
     0
  9
$MIRRTEXT
 70
     0
  9
$LTSCALE
 40
100.0
  9
$ATTMODE
 70
     1
  9
$TEXTSIZE
 40
536.1425458167722
  9
$TRACEWID
 40
1.0
  9
$TEXTSTYLE
  7
Standard
  9
$CLAYER
  8
Access .3
  9
$CELTYPE
  6
ByLayer
  9
$CECOLOR
 62
   256
  9
$CELTSCALE
 40
1.0
  9
$DISPSILH
 70
     0
  9
$DIMSCALE
 40
10.0
  9
$DIMASZ
 40
2.5
  9
$DIMEXO
 40
1.0
  9
$DIMDLI
 40
1.0
  9
$DIMRND
 40
0.0
  9
$DIMDLE
 40
2.0
  9
$DIMEXE
 40
2.0
  9
$DIMTP
 40
0.0
  9
$DIMTM
 40
0.0
  9
$DIMTXT
 40
1.8
  9
$DIMCEN
 40
2.5
  9
$DIMTSZ
 40
0.0
  9
$DIMTOL
 70
     0
  9
$DIMLIM
 70
     0
  9
$DIMTIH
 70
     0
  9
$DIMTOH
 70
     0
  9
$DIMSE1
 70
     0
  9
$DIMSE2
 70
     0
  9
$DIMTAD
 70
     1
  9
$DIMZIN
 70
     9
  9
$DIMBLK
  1

  9
$DIMASO
 70
     1
  9
$DIMSHO
 70
     1
  9
$DIMPOST
  1

  9
$DIMAPOST
  1

  9
$DIMALT
 70
     0
  9
$DIMALTD
 70
     4
  9
$DIMALTF
 40
0.0394
  9
$DIMLFAC
 40
1.0
  9
$DIMTOFL
 70
     0
  9
$DIMTVP
 40
0.0
  9
$DIMTIX
 70
     0
  9
$DIMSOXD
 70
     0
  9
$DIMSAH
 70
     1
  9
$DIMBLK1
  1
ARCHTICK
  9
$DIMBLK2
  1
ARCHTICK
  9
$DIMSTYLE
  2
Access
  9
$DIMCLRD
 70
   256
  9
$DIMCLRE
 70
   256
  9
$DIMCLRT
 70
   256
  9
$DIMTFAC
 40
1.0
  9
$DIMGAP
 40
0.9
  9
$DIMJUST
 70
     0
  9
$DIMSD1
 70
     0
  9
$DIMSD2
 70
     0
  9
$DIMTOLJ
 70
     1
  9
$DIMTZIN
 70
     0
  9
$DIMALTZ
 70
     0
  9
$DIMALTTZ
 70
     0
  9
$DIMUPT
 70
     0
  9
$DIMDEC
 70
     0
  9
$DIMTDEC
 70
     0
  9
$DIMALTU
 70
     8
  9
$DIMALTTD
 70
     4
  9
$DIMTXSTY
  7
Standard
  9
$DIMAUNIT
 70
     0
  9
$DIMADEC
 70
     0
  9
$DIMALTRND
 40
0.0
  9
$DIMAZIN
 70
     0
  9
$DIMDSEP
 70
    46
  9
$DIMATFIT
 70
     3
  9
$DIMFRAC
 70
     0
  9
$DIMLDRBLK
  1

  9
$DIMLUNIT
 70
     2
  9
$DIMLWD
 70
    -2
  9
$DIMLWE
 70
    -2
  9
$DIMTMOVE
 70
     2
  9
$DIMFXL
 40
2.0
  9
$DIMFXLON
 70
     0
  9
$DIMJOGANG
 40
1.570796326794896
  9
$DIMTFILL
 70
     0
  9
$DIMTFILLCLR
 70
     0
  9
$DIMARCSYM
 70
     0
  9
$DIMLTYPE
  6

  9
$DIMLTEX1
  6

  9
$DIMLTEX2
  6

  9
$LUNITS
 70
     2
  9
$LUPREC
 70
     4
  9
$SKETCHINC
 40
1.0
  9
$FILLETRAD
 40
0.0
  9
$AUNITS
 70
     0
  9
$AUPREC
 70
     0
  9
$MENU
  1
.
  9
$ELEVATION
 40
0.0
  9
$PELEVATION
 40
0.0
  9
$THICKNESS
 40
0.0
  9
$LIMCHECK
 70
     0
  9
$CHAMFERA
 40
0.0
  9
$CHAMFERB
 40
0.0
  9
$CHAMFERC
 40
0.0
  9
$CHAMFERD
 40
0.0
  9
$SKPOLY
 70
     0
  9
$TDCREATE
 40
2453960.715830440
  9
$TDUCREATE
 40
2453960.299163773
  9
$TDUPDATE
 40
2455343.869787709
  9
$TDUUPDATE
 40
2455343.453121042
  9
$TDINDWG
 40
0.5886824306
  9
$TDUSRTIMER
 40
0.5886824306
  9
$USRTIMER
 70
     1
  9
$ANGBASE
 50
0.0
  9
$ANGDIR
 70
     0
  9
$PDMODE
 70
     0
  9
$PDSIZE
 40
0.0
  9
$PLINEWID
 40
0.0
  9
$SPLFRAME
 70
     0
  9
$SPLINETYPE
 70
     6
  9
$SPLINESEGS
 70
     8
  9
$HANDSEED
  5
216
  9
$SURFTAB1
 70
     6
  9
$SURFTAB2
 70
     6
  9
$SURFTYPE
 70
     6
  9
$SURFU
 70
     6
  9
$SURFV
 70
     6
  9
$UCSBASE
  2

  9
$UCSNAME
  2

  9
$UCSORG
 10
0.0
 20
0.0
 30
0.0
  9
$UCSXDIR
 10
1.0
 20
0.0
 30
0.0
  9
$UCSYDIR
 10
0.0
 20
1.0
 30
0.0
  9
$UCSORTHOREF
  2

  9
$UCSORTHOVIEW
 70
     0
  9
$UCSORGTOP
 10
0.0
 20
0.0
 30
0.0
  9
$UCSORGBOTTOM
 10
0.0
 20
0.0
 30
0.0
  9
$UCSORGLEFT
 10
0.0
 20
0.0
 30
0.0
  9
$UCSORGRIGHT
 10
0.0
 20
0.0
 30
0.0
  9
$UCSORGFRONT
 10
0.0
 20
0.0
 30
0.0
  9
$UCSORGBACK
 10
0.0
 20
0.0
 30
0.0
  9
$PUCSBASE
  2

  9
$PUCSNAME
  2

  9
$PUCSORG
 10
0.0
 20
0.0
 30
0.0
  9
$PUCSXDIR
 10
1.0
 20
0.0
 30
0.0
  9
$PUCSYDIR
 10
0.0
 20
1.0
 30
0.0
  9
$PUCSORTHOREF
  2

  9
$PUCSORTHOVIEW
 70
     0
  9
$PUCSORGTOP
 10
0.0
 20
0.0
 30
0.0
  9
$PUCSORGBOTTOM
 10
0.0
 20
0.0
 30
0.0
  9
$PUCSORGLEFT
 10
0.0
 20
0.0
 30
0.0
  9
$PUCSORGRIGHT
 10
0.0
 20
0.0
 30
0.0
  9
$PUCSORGFRONT
 10
0.0
 20
0.0
 30
0.0
  9
$PUCSORGBACK
 10
0.0
 20
0.0
 30
0.0
  9
$USERI1
 70
     0
  9
$USERI2
 70
     0
  9
$USERI3
 70
     0
  9
$USERI4
 70
     0
  9
$USERI5
 70
     0
  9
$USERR1
 40
0.0
  9
$USERR2
 40
0.0
  9
$USERR3
 40
0.0
  9
$USERR4
 40
0.0
  9
$USERR5
 40
0.0
  9
$WORLDVIEW
 70
     1
  9
$SHADEDGE
 70
     3
  9
$SHADEDIF
 70
    70
  9
$TILEMODE
 70
     1
  9
$MAXACTVP
 70
    64
  9
$PINSBASE
 10
0.0
 20
0.0
 30
0.0
  9
$PLIMCHECK
 70
     0
  9
$PEXTMIN
 10
25.69999999999999
 20
19.5
 30
0.0
  9
$PEXTMAX
 10
231.3
 20
175.5
 30
0.0
  9
$PLIMMIN
 10
-20.0
 20
-7.5
  9
$PLIMMAX
 10
277.0
 20
202.5
  9
$UNITMODE
 70
     0
  9
$VISRETAIN
 70
     1
  9
$PLINEGEN
 70
     0
  9
$PSLTSCALE
 70
     1
  9
$TREEDEPTH
 70
  3020
  9
$CMLSTYLE
  2
Standard
  9
$CMLJUST
 70
     0
  9
$CMLSCALE
 40
20.0
  9
$PROXYGRAPHICS
 70
     1
  9
$MEASUREMENT
 70
     1
  9
$CELWEIGHT
370
    -1
  9
$ENDCAPS
280
     0
  9
$JOINSTYLE
280
     0
  9
$LWDISPLAY
290
     0
  9
$INSUNITS
 70
     4
  9
$HYPERLINKBASE
  1

  9
$STYLESHEET
  1
LCG Normal.ctb
  9
$XEDIT
290
     1
  9
$CEPSNTYPE
380
     0
  9
$PSTYLEMODE
290
     1
  9
$FINGERPRINTGUID
  2
{B8B68BA7-DCE8-4B33-956D-A84D3C0C2D47}
  9
$VERSIONGUID
  2
{76299275-79E0-4576-94B8-6328B656D404}
  9
$EXTNAMES
290
     1
  9
$PSVPSCALE
 40
0.0
  9
$OLESTARTUP
290
     0
  9
$SORTENTS
280
   127
  9
$INDEXCTL
280
     0
  9
$HIDETEXT
280
     1
  9
$XCLIPFRAME
290
     0
  9
$HALOGAP
280
     0
  9
$OBSCOLOR
 70
   257
  9
$OBSLTYPE
280
     0
  9
$INTERSECTIONDISPLAY
280
     0
  9
$INTERSECTIONCOLOR
 70
   257
  9
$DIMASSOC
280
     2
  9
$PROJECTNAME
  1

  9
$CAMERADISPLAY
290
     0
  9
$LENSLENGTH
 40
50.0
  9
$CAMERAHEIGHT
 40
0.0
  9
$STEPSPERSEC
 40
2.0
  9
$STEPSIZE
 40
6.0
  9
$3DDWFPREC
 40
2.0
  9
$PSOLWIDTH
 40
0.25
  9
$PSOLHEIGHT
 40
4.0
  9
$LOFTANG1
 40
1.570796326794896
  9
$LOFTANG2
 40
1.570796326794896
  9
$LOFTMAG1
 40
0.0
  9
$LOFTMAG2
 40
0.0
  9
$LOFTPARAM
 70
     7
  9
$LOFTNORMALS
280
     1
  9
$LATITUDE
 40
37.795
  9
$LONGITUDE
 40
-122.394
  9
$NORTHDIRECTION
 40
0.0
  9
$TIMEZONE
 70
 -8000
  9
$LIGHTGLYPHDISPLAY
280
     1
  9
$TILEMODELIGHTSYNCH
280
     1
  9
$CMATERIAL
347
39
  9
$SOLIDHIST
280
     1
  9
$SHOWHIST
280
     1
  9
$DWFFRAME
280
     2
  9
$DGNFRAME
280
     0
  9
$REALWORLDSCALE
290
     1
  9
$INTERFERECOLOR
 62
     1
  9
$INTERFEREOBJVS
345
41
  9
$INTERFEREVPVS
346
42
  9
$CSHADOW
280
     0
  9
$SHADOWPLANELOCATION
 40
0.0
  0
ENDSEC
  0
SECTION
  2
CLASSES
  0
CLASS
  1
ACDBDICTIONARYWDFLT
  2
AcDbDictionaryWithDefault
  3
ObjectDBX Classes
 90
        0
 91
        1
280
     0
281
     0
  0
CLASS
  1
DICTIONARYVAR
  2
AcDbDictionaryVar
  3
ObjectDBX Classes
 90
        0
 91
        1
280
     0
281
     0
  0
CLASS
  1
TABLESTYLE
  2
AcDbTableStyle
  3
ObjectDBX Classes
 90
     4095
 91
        1
280
     0
281
     0
  0
CLASS
  1
PLOTSETTINGS
  2
AcDbPlotSettings
  3
ObjectDBX Classes
 90
        0
 91
        0
280
     0
281
     0
  0
CLASS
  1
SORTENTSTABLE
  2
AcDbSortentsTable
  3
ObjectDBX Classes
 90
        0
 91
        1
280
     0
281
     0
  0
CLASS
  1
DIMASSOC
  2
AcDbDimAssoc
  3
"AcDbDimAssoc|Product Desc:     AcDim ARX App For Dimension|Company:          Autodesk, Inc.|WEB Address:      www.autodesk.com"
 90
        0
 91
        0
280
     0
281
     0
  0
CLASS
  1
SPATIAL_FILTER
  2
AcDbSpatialFilter
  3
ObjectDBX Classes
 90
        0
 91
        0
280
     0
281
     0
  0
CLASS
  1
MATERIAL
  2
AcDbMaterial
  3
ObjectDBX Classes
 90
     1024
 91
        3
280
     0
281
     0
  0
CLASS
  1
VISUALSTYLE
  2
AcDbVisualStyle
  3
ObjectDBX Classes
 90
     4095
 91
       16
280
     0
281
     0
  0
CLASS
  1
SOLID_BACKGROUND
  2
AcDbSolidBackground
  3
SCENEOE
 90
     4095
 91
        0
280
     0
281
     0
  0
CLASS
  1
NPOCOLLECTION
  2
AcDbImpNonPersistentObjectsCollection
  3
ObjectDBX Classes
 90
     1153
 91
        0
280
     0
281
     0
  0
ENDSEC
  0
SECTION
  2
TABLES
  0
TABLE
  2
VPORT
  5
25
102
{ACAD_XDICTIONARY
360
29
102
}
330
0
100
AcDbSymbolTable
 70
     1
  0
VPORT
  5
26
330
25
100
AcDbSymbolTableRecord
100
AcDbViewportTableRecord
  2
*Active
 70
     0
 10
0.0
 20
0.0
 11
1.0
 21
1.0
 12
-7470.013938529399
 22
-23127.09892772311
 13
0.0
 23
0.0
 14
10.0
 24
10.0
 15
10.0
 25
10.0
 16
0.0
 26
0.0
 36
1.0
 17
0.0
 27
0.0
 37
0.0
 40
1925.98606539733
 41
2.494824016563146
 42
50.0
 43
0.0
 44
0.0
 50
0.0
 51
0.0
 71
     0
 72
  1000
 73
     1
 74
     3
 75
     0
 76
     0
 77
     0
 78
     0
281
     0
 65
     1
110
0.0
120
0.0
130
0.0
111
1.0
121
0.0
131
0.0
112
0.0
122
1.0
132
0.0
 79
     0
146
0.0
348
27
 60
     3
 61
     5
292
     1
282
     1
141
0.0
142
0.0
 63
   250
421
  3355443
  0
ENDTAB
  0
TABLE
  2
LTYPE
  5
20
330
0
100
AcDbSymbolTable
 70
     4
  0
LTYPE
  5
21
330
20
100
AcDbSymbolTableRecord
100
AcDbLinetypeTableRecord
  2
ByBlock
 70
     0
  3

 72
    65
 73
     0
 40
0.0
  0
LTYPE
  5
22
330
20
100
AcDbSymbolTableRecord
100
AcDbLinetypeTableRecord
  2
ByLayer
 70
     0
  3

 72
    65
 73
     0
 40
0.0
  0
LTYPE
  5
C
330
20
100
AcDbSymbolTableRecord
100
AcDbLinetypeTableRecord
  2
Continuous
 70
     0
  3
Solid line
 72
    65
 73
     0
 40
0.0
  0
LTYPE
  5
57
330
20
100
AcDbSymbolTableRecord
100
AcDbLinetypeTableRecord
  2
CENTER
 70
     0
  3
Center ____ _ ____ _ ____ _ ____ _ ____ _ ____
 72
    65
 73
     4
 40
2.0
 49
1.25
 74
     0
 49
-0.25
 74
     0
 49
0.25
 74
     0
 49
-0.25
 74
     0
  0
LTYPE
  5
45
330
20
100
AcDbSymbolTableRecord
100
AcDbLinetypeTableRecord
  2
DASHED
 70
     0
  3
Dashed __ __ __ __ __ __ __ __ __ __ __ __ __ _
 72
    65
 73
     2
 40
0.75
 49
0.5
 74
     0
 49
-0.25
 74
     0
  0
LTYPE
  5
14A
330
20
100
AcDbSymbolTableRecord
100
AcDbLinetypeTableRecord
  2
HIDDEN
 70
     0
  3
Hidden __ __ __ __ __ __ __ __ __ __ __ __ __ _
 72
    65
 73
     2
 40
0.375
 49
0.25
 74
     0
 49
-0.125
 74
     0
  0
ENDTAB
  0
TABLE
  2
LAYER
  5
17
102
{ACAD_XDICTIONARY
360
18
102
}
330
0
100
AcDbSymbolTable
 70
     6
  0
LAYER
  5
6
330
17
100
AcDbSymbolTableRecord
100
AcDbLayerTableRecord
  2
0
 70
     0
 62
     7
  6
Continuous
370
    -3
390
7
347
A
  0
LAYER
  5
AF
330
17
100
AcDbSymbolTableRecord
100
AcDbLayerTableRecord
  2
Access .1
 70
     0
 62
     1
  6
Continuous
370
    -3
390
7
347
A
1001
AcAecLayerStandard
1000

1000

  0
LAYER
  5
47
330
17
100
AcDbSymbolTableRecord
100
AcDbLayerTableRecord
  2
Access .2
 70
     0
 62
     2
  6
Continuous
370
    -3
390
7
347
A
1001
AcAecLayerStandard
1000

1000

  0
LAYER
  5
3D
330
17
100
AcDbSymbolTableRecord
100
AcDbLayerTableRecord
  2
Access .3
 70
     0
 62
     3
  6
Continuous
370
    -3
390
7
347
A
1001
AcAecLayerStandard
1000

1000

  0
LAYER
  5
44
330
17
100
AcDbSymbolTableRecord
100
AcDbLayerTableRecord
  2
Access Circulation
 70
     0
 62
     6
  6
DASHED
370
    -3
390
7
347
A
1001
AcAecLayerStandard
1000

1000

  0
LAYER
  5
56
330
17
100
AcDbSymbolTableRecord
100
AcDbLayerTableRecord
  2
Access Grid
 70
     0
 62
     8
  6
CENTER
370
    -3
390
7
347
A
1001
AcAecLayerStandard
1000

1000

  0
ENDTAB
  0
TABLE
  2
STYLE
  5
1D
330
0
100
AcDbSymbolTable
 70
     1
  0
STYLE
  5
1E
330
1D
100
AcDbSymbolTableRecord
100
AcDbTextStyleTableRecord
  2
Standard
 70
     0
 40
0.0
 41
1.0
 50
0.0
 71
     0
 42
536.1425458167722
  3
ARIALN.TTF
  4

1001
ACAD
1000
Arial Narrow
1071
       34
  0
ENDTAB
  0
TABLE
  2
VIEW
  5
23
330
0
100
AcDbSymbolTable
 70
     0
  0
ENDTAB
  0
TABLE
  2
UCS
  5
24
330
0
100
AcDbSymbolTable
 70
     0
  0
ENDTAB
  0
TABLE
  2
APPID
  5
2A
330
0
100
AcDbSymbolTable
 70
     5
  0
APPID
  5
1C
330
2A
100
AcDbSymbolTableRecord
100
AcDbRegAppTableRecord
  2
ACAD
 70
     0
  0
APPID
  5
10
330
2A
100
AcDbSymbolTableRecord
100
AcDbRegAppTableRecord
  2
ACAD_PSEXT
 70
     0
  0
APPID
  5
3E
330
2A
100
AcDbSymbolTableRecord
100
AcDbRegAppTableRecord
  2
AcAecLayerStandard
 70
     0
  0
APPID
  5
34
330
2A
100
AcDbSymbolTableRecord
100
AcDbRegAppTableRecord
  2
ACAD_DSTYLE_DIMJOGGED_JOGANGLE_SYMBOL
 70
     0
  0
APPID
  5
1A8
330
2A
100
AcDbSymbolTableRecord
100
AcDbRegAppTableRecord
  2
ACAD_DSTYLE_DIMEXT_LENGTH
 70
     0
  0
ENDTAB
  0
TABLE
  2
DIMSTYLE
  5
2B
330
0
100
AcDbSymbolTable
 70
     1
100
AcDbDimStyleTable
 71
     1
340
2C
  0
DIMSTYLE
105
2C
330
2B
100
AcDbSymbolTableRecord
100
AcDbDimStyleTableRecord
  2
Access
 70
     0
 40
10.0
 41
2.5
 42
1.0
 43
1.0
 44
2.0
 46
2.0
 49
2.0
 50
90.0
 73
     0
 74
     0
 77
     1
 78
     9
140
1.8
141
2.5
143
0.0394
147
0.9
171
     4
173
     1
176
   256
177
   256
178
   256
271
     0
272
     0
273
     8
274
     4
279
     2
340
1E
343
2D
344
2D
1001
ACAD_DSTYLE_DIMJOGGED_JOGANGLE_SYMBOL
1070
   384
1040
1.570796326794896
  0
ENDTAB
  0
TABLE
  2
BLOCK_RECORD
  5
1
330
0
100
AcDbSymbolTable
 70
     1
  0
BLOCK_RECORD
  5
2
102
{ACAD_XDICTIONARY
360
3
102
}
330
1
100
AcDbSymbolTableRecord
100
AcDbBlockTableRecord
  2
*Model_Space
340
E
 70
     0
280
     1
281
     0
  0
BLOCK_RECORD
  5
11
330
1
100
AcDbSymbolTableRecord
100
AcDbBlockTableRecord
  2
*Paper_Space
340
14
 70
     0
280
     1
281
     0
  0
BLOCK_RECORD
  5
2D
330
1
100
AcDbSymbolTableRecord
100
AcDbBlockTableRecord
  2
_ARCHTICK
340
0
 70
     0
280
     1
281
     0
  0
ENDTAB
  0
ENDSEC
  0
SECTION
  2
BLOCKS
  0
BLOCK
  5
5
330
2
100
AcDbEntity
  8
0
100
AcDbBlockBegin
  2
*Model_Space
 70
     0
 10
0.0
 20
0.0
 30
0.0
  3
*Model_Space
  1

  0
ENDBLK
  5
D
330
2
100
AcDbEntity
  8
0
100
AcDbBlockEnd
  0
BLOCK
  5
12
330
11
100
AcDbEntity
 67
     1
  8
0
100
AcDbBlockBegin
  2
*Paper_Space
 70
     0
 10
0.0
 20
0.0
 30
0.0
  3
*Paper_Space
  1

  0
ENDBLK
  5
13
330
11
100
AcDbEntity
 67
     1
  8
0
100
AcDbBlockEnd
  0
BLOCK
  5
2E
330
2D
100
AcDbEntity
  8
0
100
AcDbBlockBegin
  2
_ARCHTICK
 70
     0
 10
0.0
 20
0.0
 30
0.0
  3
_ARCHTICK
  1

  0
POLYLINE
  5
2F
330
2D
100
AcDbEntity
  8
0
  6
ByBlock
 62
     0
100
AcDb2dPolyline
 66
     1
 10
0.0
 20
0.0
 30
0.0
 40
0.15
 41
0.15
  0
VERTEX
  5
30
330
2F
100
AcDbEntity
  8
0
  6
ByBlock
 62
     0
100
AcDbVertex
100
AcDb2dVertex
 10
-0.5
 20
-0.5
 30
0.0
  0
VERTEX
  5
31
330
2F
100
AcDbEntity
  8
0
  6
ByBlock
 62
     0
100
AcDbVertex
100
AcDb2dVertex
 10
0.5
 20
0.5
 30
0.0
  0
SEQEND
  5
32
330
2F
100
AcDbEntity
  8
0
  6
ByBlock
 62
     0
  0
ENDBLK
  5
33
330
2D
100
AcDbEntity
  8
0
100
AcDbBlockEnd
  0
ENDSEC
  0
SECTION
  2
ENTITIES
  0
LINE
  5
43
330
2
100
AcDbEntity
  8
Access Circulation
100
AcDbLine
 10
-6441.848698920316
 20
-22176.44671706723
 30
0.0
 11
-8441.848698920315
 21
-22176.44671706723
 31
0.0
  0
LINE
  5
46
330
2
100
AcDbEntity
  8
Access .2
100
AcDbLine
 10
-7939.075259140887
 20
-22184.44671706724
 30
0.0
 11
-8014.075259140884
 21
-22184.44671706724
 31
0.0
  0
LINE
  5
48
330
2
100
AcDbEntity
  8
Access .2
100
AcDbLine
 10
-6491.848698920314
 20
-22226.44671706724
 30
0.0
 11
-7942.575259140885
 21
-22226.44671706724
 31
0.0
  0
LINE
  5
49
330
2
100
AcDbEntity
  8
Access .2
100
AcDbLine
 10
-6523.848698920314
 20
-22258.44671706723
 30
0.0
 11
-7942.575259140885
 21
-22258.44671706723
 31
0.0
  0
ARC
  5
4A
330
2
100
AcDbEntity
  8
Access .2
100
AcDbCircle
 10
-7942.575259140885
 20
-22208.44671706724
 30
0.0
 40
50.0
100
AcDbArc
 50
180.0
 51
270.0
  0
ARC
  5
4B
330
2
100
AcDbEntity
  8
Access .2
100
AcDbCircle
 10
-7942.575259140885
 20
-22208.44671706724
 30
0.0
 40
18.0
100
AcDbArc
 50
180.0
 51
270.0
  0
ARC
  5
4C
330
2
100
AcDbEntity
  8
Access Circulation
100
AcDbCircle
 10
-8441.848698920315
 20
-22476.44671706724
 30
0.0
 40
300.0
100
AcDbArc
 50
90.0
 51
180.0
  0
LINE
  5
4D
330
2
100
AcDbEntity
  8
Access Circulation
100
AcDbLine
 10
-6741.848698920314
 20
-24076.44671706724
 30
0.0
 11
-8441.848698920315
 21
-24076.44671706724
 31
0.0
  0
ARC
  5
4E
330
2
100
AcDbEntity
  8
Access Circulation
100
AcDbCircle
 10
-6741.848698920314
 20
-23776.44671706724
 30
0.0
 40
300.0
100
AcDbArc
 50
270.0
 51
0.0
  0
LINE
  5
4F
330
2
100
AcDbEntity
  8
Access Circulation
100
AcDbLine
 10
-6441.848698920316
 20
-22176.44671706723
 30
0.0
 11
-6441.848698920314
 21
-23776.44671706724
 31
0.0
  0
LINE
  5
50
330
2
100
AcDbEntity
  8
Access .2
100
AcDbLine
 10
-6449.848698920316
 20
-23096.44671706724
 30
0.0
 11
-6449.848698920316
 21
-23156.44671706724
 31
0.0
  0
LINE
  5
51
330
2
100
AcDbEntity
  8
Access .2
100
AcDbLine
 10
-6491.848698920314
 20
-22226.44671706724
 30
0.0
 11
-6491.848698920314
 21
-23092.44671706724
 31
0.0
  0
LINE
  5
52
330
2
100
AcDbEntity
  8
Access .2
100
AcDbLine
 10
-6523.848698920314
 20
-22258.44671706723
 30
0.0
 11
-6523.848698920314
 21
-23092.44671706724
 31
0.0
  0
LINE
  5
53
330
2
100
AcDbEntity
  8
Access Circulation
100
AcDbLine
 10
-8741.848698920314
 20
-22476.44671706724
 30
0.0
 11
-8741.848698920314
 21
-23776.44671706724
 31
0.0
  0
ARC
  5
54
330
2
100
AcDbEntity
  8
Access Circulation
100
AcDbCircle
 10
-8441.848698920315
 20
-23776.44671706724
 30
0.0
 40
300.0
100
AcDbArc
 50
180.0
 51
270.0
  0
LINE
  5
55
330
2
100
AcDbEntity
  8
Access Grid
100
AcDbLine
 10
-6198.676832531604
 20
-22626.44671706724
 30
0.0
 11
-7397.634938077604
 21
-22626.44671706724
 31
0.0
  0
LINE
  5
58
330
2
100
AcDbEntity
  8
Access .2
100
AcDbLine
 10
-6441.848698920314
 20
-23156.44671706724
 30
0.0
 11
-6449.848698920316
 21
-23156.44671706724
 31
0.0
  0
LINE
  5
59
330
2
100
AcDbEntity
  8
Access .2
100
AcDbLine
 10
-6449.848698920316
 20
-23142.44671706723
 30
0.0
 11
-6473.848698920313
 21
-23142.44671706723
 31
0.0
  0
ARC
  5
5A
330
2
100
AcDbEntity
  8
Access .2
100
AcDbCircle
 10
-6473.848698920313
 20
-23092.44671706724
 30
0.0
 40
50.0
100
AcDbArc
 50
180.0
 51
270.0
  0
ARC
  5
5B
330
2
100
AcDbEntity
  8
Access .2
100
AcDbCircle
 10
-6473.848698920313
 20
-23092.44671706724
 30
0.0
 40
18.0
100
AcDbArc
 50
180.0
 51
270.0
  0
LINE
  5
5C
330
2
100
AcDbEntity
  8
Access .2
100
AcDbLine
 10
-6449.848698920316
 20
-23110.44671706724
 30
0.0
 11
-6473.848698920313
 21
-23110.44671706724
 31
0.0
  0
LINE
  5
5D
330
2
100
AcDbEntity
  8
Access .2
100
AcDbLine
 10
-6441.848698920314
 20
-23096.44671706724
 30
0.0
 11
-6449.848698920316
 21
-23096.44671706724
 31
0.0
  0
LINE
  5
5E
330
2
100
AcDbEntity
  8
Access .2
100
AcDbLine
 10
-6901.348698920315
 20
-22226.44671706724
 30
0.0
 11
-6901.348698920315
 21
-22184.44671706724
 31
0.0
  0
LINE
  5
5F
330
2
100
AcDbEntity
  8
Access .2
100
AcDbLine
 10
-6882.348698920314
 20
-22226.44671706724
 30
0.0
 11
-6882.348698920317
 21
-22184.44671706724
 31
0.0
  0
LINE
  5
60
330
2
100
AcDbEntity
  8
Access .2
100
AcDbLine
 10
-8014.075259140886
 20
-22176.44671706723
 30
0.0
 11
-8014.075259140884
 21
-22184.44671706724
 31
0.0
  0
LINE
  5
61
330
2
100
AcDbEntity
  8
Access .2
100
AcDbLine
 10
-7992.575259140888
 20
-22184.44671706724
 30
0.0
 11
-7992.575259140885
 21
-22208.44671706724
 31
0.0
  0
LINE
  5
62
330
2
100
AcDbEntity
  8
Access .2
100
AcDbLine
 10
-7939.075259140884
 20
-22176.44671706723
 30
0.0
 11
-7939.075259140885
 21
-22184.44671706724
 31
0.0
  0
LINE
  5
63
330
2
100
AcDbEntity
  8
Access .2
100
AcDbLine
 10
-7960.575259140885
 20
-22184.44671706724
 30
0.0
 11
-7960.575259140881
 21
-22208.44671706724
 31
0.0
  0
LINE
  5
64
330
2
100
AcDbEntity
  8
Access .2
100
AcDbLine
 10
-6854.348698920317
 20
-22184.44671706724
 30
0.0
 11
-6929.348698920316
 21
-22184.44671706724
 31
0.0
  0
LINE
  5
65
330
2
100
AcDbEntity
  8
Access .2
100
AcDbLine
 10
-6929.348698920318
 20
-22176.44671706723
 30
0.0
 11
-6929.348698920316
 21
-22184.44671706724
 31
0.0
  0
LINE
  5
66
330
2
100
AcDbEntity
  8
Access .2
100
AcDbLine
 10
-6854.348698920316
 20
-22176.44671706723
 30
0.0
 11
-6854.348698920317
 21
-22184.44671706724
 31
0.0
  0
LINE
  5
67
330
2
100
AcDbEntity
  8
Access .2
100
AcDbLine
 10
-8014.075259140886
 20
-22176.44671706723
 30
0.0
 11
-7939.075259140884
 21
-22176.44671706723
 31
0.0
  0
LINE
  5
68
330
2
100
AcDbEntity
  8
Access .2
100
AcDbLine
 10
-6929.348698920318
 20
-22176.44671706723
 30
0.0
 11
-6854.348698920316
 21
-22176.44671706723
 31
0.0
  0
LINE
  5
69
330
2
100
AcDbEntity
  8
Access .2
100
AcDbLine
 10
-6441.848698920314
 20
-23096.44671706724
 30
0.0
 11
-6441.848698920314
 21
-23156.44671706724
 31
0.0
  0
LWPOLYLINE
  5
6A
330
2
100
AcDbEntity
  8
Access .2
  6
ByBlock
100
AcDbPolyline
 90
       13
 70
     0
 43
0.0
 10
-6738.493260687896
 20
-22456.47528152036
 10
-6713.284825629303
 20
-22457.92138747739
 10
-6700.692693060943
 20
-22458.61737136411
 10
-6677.619756049224
 20
-22459.80804519223
 10
-6668.145146674224
 20
-22460.25634841489
 10
-6650.869878119538
 20
-22461.00360183286
 10
-6638.546971625396
 20
-22461.47753982114
 10
-6626.810307807037
 20
-22461.88256911802
 10
-6615.071202582427
 20
-22462.24298171567
 10
-6603.207158392975
 20
-22462.56298903989
 10
-6591.3226369086
 20
-22462.84118728208
 10
-6568.727055853912
 20
-22463.26263503598
 10
-6548.582646674225
 20
-22463.53357009458
  0
LWPOLYLINE
  5
6B
330
2
100
AcDbEntity
  8
Access .2
  6
ByBlock
100
AcDbPolyline
 90
       11
 70
     0
 43
0.0
 10
-6556.466100043365
 20
-22789.46173171567
 10
-6565.690800971101
 20
-22789.59851150083
 10
-6588.708867377349
 20
-22790.0264289813
 10
-6611.719731635162
 20
-22790.59527663755
 10
-6630.082219428131
 20
-22791.16253737973
 10
-6648.359319037506
 20
-22791.83325271176
 10
-6661.972600287505
 20
-22792.40179519223
 10
-6678.522069281647
 20
-22793.16815261411
 10
-6695.027806586335
 20
-22794.00524978208
 10
-6711.536320990631
 20
-22794.89941482114
 10
-6738.498174017975
 20
-22796.4293220477
  0
LWPOLYLINE
  5
6C
330
2
100
AcDbEntity
  8
Access .2
  6
ByBlock
100
AcDbPolyline
 90
       11
 70
     0
 43
0.0
 10
-7034.100041693756
 20
-22732.22973708676
 10
-7040.498906439849
 20
-22731.39947585629
 10
-7046.883794135162
 20
-22730.43585280942
 10
-7053.20038349063
 20
-22729.34393386411
 10
-7059.422734564849
 20
-22728.12109450864
 10
-7063.51532489688
 20
-22727.22961501645
 10
-7067.56531268985
 20
-22726.27374343442
 10
-7071.576299017976
 20
-22725.2506111102
 10
-7075.552312201569
 20
-22724.15765456723
 10
-7079.497014350007
 20
-22722.99292068051
 10
-7083.412602728912
 20
-22721.75573806332
  0
LWPOLYLINE
  5
6D
330
2
100
AcDbEntity
  8
Access .2
  6
ByBlock
100
AcDbPolyline
 90
       11
 70
     0
 43
0.0
 10
-7034.100041693756
 20
-22520.6636970477
 10
-7040.498906439849
 20
-22521.49395827817
 10
-7046.883794135162
 20
-22522.45758132505
 10
-7053.20038349063
 20
-22523.54950027036
 10
-7059.422734564849
 20
-22524.77233962583
 10
-7063.51532489688
 20
-22525.66381911802
 10
-7067.56531268985
 20
-22526.61969070004
 10
-7071.576299017976
 20
-22527.64282302426
 10
-7075.552312201569
 20
-22528.73577956723
 10
-7079.497014350007
 20
-22529.90051345395
 10
-7083.412602728912
 20
-22531.13769607114
  0
LWPOLYLINE
  5
6E
330
2
100
AcDbEntity
  8
Access .2
  6
ByBlock
100
AcDbPolyline
 90
       11
 70
     0
 43
0.0
 10
-7105.287358588288
 20
-22464.1177986102
 10
-7099.068181342193
 20
-22462.1666267352
 10
-7092.808598822663
 20
-22460.35644607114
 10
-7086.514958685943
 20
-22458.68823318051
 10
-7080.196294135162
 20
-22457.16009597348
 10
-7073.861821478913
 20
-22455.76745681333
 10
-7067.518681830475
 20
-22454.50439528989
 10
-7061.259465521882
 20
-22453.37890700864
 10
-7054.995305365631
 20
-22452.36608962583
 10
-7048.722417182037
 20
-22451.46044997739
 10
-7042.431035346099
 20
-22450.65771560239
  0
LWPOLYLINE
  5
6F
330
2
100
AcDbEntity
  8
Access .2
  6
ByBlock
100
AcDbPolyline
 90
       11
 70
     0
 43
0.0
 10
-7105.287358588288
 20
-22788.77563552426
 10
-7099.068181342193
 20
-22790.72680739926
 10
-7092.808598822663
 20
-22792.53698806332
 10
-7086.514958685943
 20
-22794.20520095395
 10
-7080.196294135162
 20
-22795.73333816098
 10
-7073.861821478913
 20
-22797.12597732114
 10
-7067.518681830475
 20
-22798.38903884458
 10
-7061.259465521882
 20
-22799.51452712583
 10
-7054.995305365631
 20
-22800.52734450864
 10
-7048.722417182037
 20
-22801.43298415707
 10
-7042.431035346099
 20
-22802.23571853208
  0
LWPOLYLINE
  5
70
330
2
100
AcDbEntity
  8
Access .2
  6
ByBlock
100
AcDbPolyline
 90
        6
 70
     0
 43
0.0
 10
-7236.232060736725
 20
-22586.92822341489
 10
-7234.943913764069
 20
-22582.71600417661
 10
-7233.554692572662
 20
-22578.53472976254
 10
-7232.056645697662
 20
-22574.37872390317
 10
-7230.445256537506
 20
-22570.24816970395
 10
-7228.692632025787
 20
-22566.08966140317
  0
LWPOLYLINE
  5
71
330
2
100
AcDbEntity
  8
Access .2
  6
ByBlock
100
AcDbPolyline
 90
        6
 70
     0
 43
0.0
 10
-7236.232060736725
 20
-22665.96521071958
 10
-7234.943913764069
 20
-22670.17742995786
 10
-7233.554692572662
 20
-22674.35870437192
 10
-7232.056645697662
 20
-22678.5147102313
 10
-7230.445256537506
 20
-22682.64526443052
 10
-7228.692632025787
 20
-22686.80377273129
  0
LWPOLYLINE
  5
72
330
2
100
AcDbEntity
  8
Access .2
  6
ByBlock
100
AcDbPolyline
 90
       12
 70
     0
 43
0.0
 10
-7242.454045600005
 20
-22626.4488532977
 10
-7242.434331244537
 20
-22628.56665114926
 10
-7242.374821967193
 20
-22630.67883376645
 10
-7242.140813178131
 20
-22634.88201980161
 10
-7241.761418646881
 20
-22639.0508430438
 10
-7241.247197455475
 20
-22643.17999343442
 10
-7240.609196967193
 20
-22647.26562575864
 10
-7240.179265326569
 20
-22649.65564040708
 10
-7239.712407416412
 20
-22652.02941970395
 10
-7238.676335639069
 20
-22656.72937087582
 10
-7237.513982123444
 20
-22661.37146071958
 10
-7236.232060736725
 20
-22665.96521071958
  0
LWPOLYLINE
  5
73
330
2
100
AcDbEntity
  8
Access .2
  6
ByBlock
100
AcDbPolyline
 90
       12
 70
     0
 43
0.0
 10
-7242.454045600005
 20
-22626.44458083677
 10
-7242.434331244537
 20
-22624.3267829852
 10
-7242.374821967193
 20
-22622.21460036801
 10
-7242.140813178131
 20
-22618.01141433286
 10
-7241.761418646881
 20
-22613.84259109067
 10
-7241.247197455475
 20
-22609.71344070004
 10
-7240.609196967193
 20
-22605.62780837583
 10
-7240.179265326569
 20
-22603.23779372739
 10
-7239.712407416412
 20
-22600.86401443051
 10
-7238.676335639069
 20
-22596.16406325864
 10
-7237.513982123444
 20
-22591.52197341489
 10
-7236.232060736725
 20
-22586.92822341489
  0
LWPOLYLINE
  5
74
330
2
100
AcDbEntity
  8
Access .2
  6
ByBlock
100
AcDbPolyline
 90
       10
 70
     0
 43
0.0
 10
-7171.954045600006
 20
-22626.45074538755
 10
-7171.932805365631
 20
-22627.78472976255
 10
-7171.869756049225
 20
-22629.11676101254
 10
-7171.633794135162
 20
-22631.77380446958
 10
-7171.273381537506
 20
-22634.41943435239
 10
-7170.942998236725
 20
-22636.34991530942
 10
-7170.564519232819
 20
-22638.27179030942
 10
-7170.122990912506
 20
-22640.27258376645
 10
-7169.639653510163
 20
-22642.26226882505
 10
-7168.585027045319
 20
-22646.12042312192
  0
LWPOLYLINE
  5
75
330
2
100
AcDbEntity
  8
Access .2
  6
ByBlock
100
AcDbPolyline
 90
        9
 70
     0
 43
0.0
 10
-7138.699040717193
 20
-22692.17883376645
 10
-7141.651860541412
 20
-22689.52960280942
 10
-7144.4837697211
 20
-22686.79858474301
 10
-7147.197881049224
 20
-22683.98144607114
 10
-7149.787663764069
 20
-22681.0845954852
 10
-7152.241826361725
 20
-22678.12060622739
 10
-7154.548344916412
 20
-22675.1026008563
 10
-7156.699284857818
 20
-22672.03930739926
 10
-7158.69501239688
 20
-22668.92993239927
  0
LWPOLYLINE
  5
76
330
2
100
AcDbEntity
  8
Access .2
  6
ByBlock
100
AcDbPolyline
 90
       21
 70
     0
 43
0.0
 10
-7184.8480275336
 20
-22745.47473220395
 10
-7182.010991400787
 20
-22747.88195876645
 10
-7179.129216498444
 20
-22750.22876052426
 10
-7176.205510443756
 20
-22752.51501540707
 10
-7173.986882514069
 20
-22754.1900642352
 10
-7171.747197455475
 20
-22755.83129958676
 10
-7167.208623236724
 20
-22759.01294021176
 10
-7162.596745795318
 20
-22762.06189040708
 10
-7157.917790717194
 20
-22764.98083571958
 10
-7153.1771290961
 20
-22767.77282790708
 10
-7148.982243842194
 20
-22770.11431960629
 10
-7144.746770209382
 20
-22772.36364821958
 10
-7140.473271674224
 20
-22774.52319411801
 10
-7136.164250678131
 20
-22776.5953376727
 10
-7133.273015326569
 20
-22777.9293220477
 10
-7130.367802924225
 20
-22779.22595290708
 10
-7124.518010443757
 20
-22781.70977859067
 10
-7119.753850287506
 20
-22783.61285476254
 10
-7114.959416693756
 20
-22785.42437820004
 10
-7110.136662787507
 20
-22787.14526443051
 10
-7105.287358588288
 20
-22788.77563552426
  0
LWPOLYLINE
  5
77
330
2
100
AcDbEntity
  8
Access .2
  6
ByBlock
100
AcDbPolyline
 90
       13
 70
     0
 43
0.0
 10
-7184.8480275336
 20
-22745.47473220395
 10
-7188.0736134711
 20
-22742.61303786802
 10
-7191.240056342194
 20
-22739.6666267352
 10
-7194.341374701568
 20
-22736.63909987973
 10
-7197.373174017974
 20
-22733.53204421567
 10
-7200.332707709382
 20
-22730.34552077817
 10
-7203.217900580475
 20
-22727.07867507504
 10
-7206.026982611724
 20
-22723.7301032977
 10
-7208.758061713287
 20
-22720.29821853208
 10
-7211.4085744086
 20
-22716.78192214536
 10
-7213.974492377349
 20
-22713.18109206723
 10
-7216.450322455475
 20
-22709.49694900083
 10
-7218.828069037506
 20
-22705.73242263364
  0
LWPOLYLINE
  5
78
330
2
100
AcDbEntity
  8
Access .2
  6
ByBlock
100
AcDbPolyline
 90
        6
 70
     0
 43
0.0
 10
-7228.691716498443
 20
-22686.80340652036
 10
-7226.923894232818
 20
-22690.69238357114
 10
-7225.052861517974
 20
-22694.53295974301
 10
-7223.078252142975
 20
-22698.32128982114
 10
-7221.000737494538
 20
-22702.05413894223
 10
-7218.8216603461
 20
-22705.72851638364
  0
ARC
  5
79
330
2
100
AcDbEntity
  8
Access .2
  6
ByBlock
100
AcDbCircle
 10
-7065.761052435944
 20
-22607.88555984067
 30
0.0
 40
181.9672241210937
100
AcDbArc
 50
227.6653856187726
 51
229.1229473279535
  0
LWPOLYLINE
  5
7A
330
2
100
AcDbEntity
  8
Access .2
  6
ByBlock
100
AcDbPolyline
 90
        9
 70
     0
 43
0.0
 10
-7158.69501239688
 20
-22668.92993239927
 10
-7160.224187201568
 20
-22666.32849196958
 10
-7161.656010932038
 20
-22663.6817024188
 10
-7162.995793646881
 20
-22660.98053054379
 10
-7164.253728217193
 20
-22658.2027595477
 10
-7165.440373725006
 20
-22655.32574538755
 10
-7166.561772650787
 20
-22652.33819655942
 10
-7167.615117377351
 20
-22649.25317458676
 10
-7168.584050482819
 20
-22646.12011794614
  0
LWPOLYLINE
  5
7B
330
2
100
AcDbEntity
  8
Access .2
  6
ByBlock
100
AcDbPolyline
 90
       22
 70
     0
 43
0.0
 10
-7083.412602728912
 20
-22721.75573806332
 10
-7088.654424017974
 20
-22719.96942214536
 10
-7093.823369330475
 20
-22718.05444411802
 10
-7098.9075978461
 20
-22716.01214675473
 10
-7101.413701361725
 20
-22714.94378737973
 10
-7103.893559760162
 20
-22713.84423903989
 10
-7106.345341986724
 20
-22712.71380691098
 10
-7108.767278021881
 20
-22711.5527961688
 10
-7111.157597846101
 20
-22710.36145095395
 10
-7113.51453143985
 20
-22709.13995437192
 10
-7115.836491889068
 20
-22707.88867263364
 10
-7118.121709174225
 20
-22706.60766677426
 10
-7120.368840521881
 20
-22705.29724196958
 10
-7122.576421088287
 20
-22703.95752028989
 10
-7124.743169135162
 20
-22702.5885017352
 10
-7126.867986029694
 20
-22701.19018630551
 10
-7128.949956244537
 20
-22699.76269607114
 10
-7130.988347357818
 20
-22698.3057258563
 10
-7132.982549017974
 20
-22696.81921462582
 10
-7134.932439154693
 20
-22695.30285720395
 10
-7136.837834662506
 20
-22693.75616530942
 10
-7138.699040717193
 20
-22692.17883376645
  0
LWPOLYLINE
  5
7C
330
2
100
AcDbEntity
  8
Access .2
  6
ByBlock
100
AcDbPolyline
 90
        9
 70
     0
 43
0.0
 10
-7138.699040717193
 20
-22560.71460036801
 10
-7141.651860541412
 20
-22563.36383132504
 10
-7144.4837697211
 20
-22566.09484939145
 10
-7147.197881049224
 20
-22568.91198806333
 10
-7149.787663764069
 20
-22571.80883864926
 10
-7152.241826361725
 20
-22574.77282790708
 10
-7154.548344916412
 20
-22577.79083327817
 10
-7156.699284857818
 20
-22580.8541267352
 10
-7158.69501239688
 20
-22583.9635017352
  0
LWPOLYLINE
  5
7D
330
2
100
AcDbEntity
  8
Access .2
  6
ByBlock
100
AcDbPolyline
 90
       21
 70
     0
 43
0.0
 10
-7184.8480275336
 20
-22507.41870193051
 10
-7182.010991400787
 20
-22505.01147536801
 10
-7179.129216498444
 20
-22502.6646736102
 10
-7176.205510443756
 20
-22500.37841872739
 10
-7173.986882514069
 20
-22498.70336989927
 10
-7171.747197455475
 20
-22497.0621345477
 10
-7167.208623236724
 20
-22493.8804939227
 10
-7162.596745795318
 20
-22490.83154372739
 10
-7157.917790717194
 20
-22487.91259841489
 10
-7153.1771290961
 20
-22485.12060622739
 10
-7148.982243842194
 20
-22482.77911452817
 10
-7144.746770209382
 20
-22480.52978591489
 10
-7140.473271674224
 20
-22478.37024001645
 10
-7136.164250678131
 20
-22476.29809646177
 10
-7133.273015326569
 20
-22474.96411208676
 10
-7130.367802924225
 20
-22473.66748122739
 10
-7124.518010443757
 20
-22471.1836555438
 10
-7119.753850287506
 20
-22469.28057937192
 10
-7114.959416693756
 20
-22467.46905593442
 10
-7110.136662787507
 20
-22465.74816970395
 10
-7105.287358588288
 20
-22464.1177986102
  0
LWPOLYLINE
  5
7E
330
2
100
AcDbEntity
  8
Access .2
  6
ByBlock
100
AcDbPolyline
 90
       13
 70
     0
 43
0.0
 10
-7184.8480275336
 20
-22507.41870193051
 10
-7188.0736134711
 20
-22510.28039626645
 10
-7191.240056342194
 20
-22513.22680739926
 10
-7194.341374701568
 20
-22516.25433425473
 10
-7197.373174017974
 20
-22519.36138991879
 10
-7200.332707709382
 20
-22522.5479133563
 10
-7203.217900580475
 20
-22525.81475905942
 10
-7206.026982611724
 20
-22529.16333083677
 10
-7208.758061713287
 20
-22532.59521560239
 10
-7211.4085744086
 20
-22536.11151198911
 10
-7213.974492377349
 20
-22539.71234206723
 10
-7216.450322455475
 20
-22543.39648513364
 10
-7218.828069037506
 20
-22547.16101150083
  0
LWPOLYLINE
  5
7F
330
2
100
AcDbEntity
  8
Access .2
  6
ByBlock
100
AcDbPolyline
 90
        6
 70
     0
 43
0.0
 10
-7228.691716498443
 20
-22566.09002761411
 10
-7226.923894232818
 20
-22562.20105056333
 10
-7225.052861517974
 20
-22558.36047439145
 10
-7223.078252142975
 20
-22554.57214431332
 10
-7221.000737494538
 20
-22550.83929519223
 10
-7218.8216603461
 20
-22547.16491775083
  0
LWPOLYLINE
  5
80
330
2
100
AcDbEntity
  8
Access .2
  6
ByBlock
100
AcDbPolyline
 90
        9
 70
     0
 43
0.0
 10
-7158.69501239688
 20
-22583.9635017352
 10
-7160.224187201568
 20
-22586.56494216489
 10
-7161.656010932038
 20
-22589.21173171567
 10
-7162.995793646881
 20
-22591.91290359067
 10
-7164.253728217193
 20
-22594.69067458677
 10
-7165.440373725006
 20
-22597.56768874692
 10
-7166.561772650787
 20
-22600.55523757504
 10
-7167.615117377351
 20
-22603.6402595477
 10
-7168.584050482819
 20
-22606.77331618833
  0
LWPOLYLINE
  5
81
330
2
100
AcDbEntity
  8
Access .2
  6
ByBlock
100
AcDbPolyline
 90
       10
 70
     0
 43
0.0
 10
-7168.584050482819
 20
-22606.77331618833
 10
-7169.592900580474
 20
-22610.44659499692
 10
-7170.450261420318
 20
-22614.07769851254
 10
-7170.814030951568
 20
-22615.85632400083
 10
-7171.130803412506
 20
-22617.60034255551
 10
-7171.588017767975
 20
-22620.73577956723
 10
-7171.749028510162
 20
-22622.24011306332
 10
-7171.863713568756
 20
-22623.6953742938
 10
-7171.931950873442
 20
-22625.09527663755
 10
-7171.955022162506
 20
-22626.44268874692
  0
ARC
  5
82
330
2
100
AcDbEntity
  8
Access .2
  6
ByBlock
100
AcDbCircle
 10
-7065.761052435944
 20
-22645.00787429379
 30
0.0
 40
181.9672241210937
100
AcDbArc
 50
130.8770526720465
 51
132.3346143812273
  0
LWPOLYLINE
  5
83
330
2
100
AcDbEntity
  8
Access .2
  6
ByBlock
100
AcDbPolyline
 90
       22
 70
     0
 43
0.0
 10
-7083.412602728912
 20
-22531.13769607114
 10
-7088.654424017974
 20
-22532.92401198911
 10
-7093.823369330475
 20
-22534.83899001645
 10
-7098.9075978461
 20
-22536.88128737973
 10
-7101.413701361725
 20
-22537.94964675473
 10
-7103.893559760162
 20
-22539.04919509458
 10
-7106.345341986724
 20
-22540.17962722348
 10
-7108.767278021881
 20
-22541.34063796567
 10
-7111.157597846101
 20
-22542.53198318052
 10
-7113.51453143985
 20
-22543.75347976254
 10
-7115.836491889068
 20
-22545.00476150083
 10
-7118.121709174225
 20
-22546.2857673602
 10
-7120.368840521881
 20
-22547.59619216489
 10
-7122.576421088287
 20
-22548.93591384458
 10
-7124.743169135162
 20
-22550.30493239926
 10
-7126.867986029694
 20
-22551.70324782895
 10
-7128.949956244537
 20
-22553.13073806333
 10
-7130.988347357818
 20
-22554.58770827817
 10
-7132.982549017974
 20
-22556.07421950864
 10
-7134.932439154693
 20
-22557.59057693051
 10
-7136.837834662506
 20
-22559.13726882504
 10
-7138.699040717193
 20
-22560.71460036801
  0
LWPOLYLINE
  5
84
330
2
100
AcDbEntity
  8
Access .2
  6
ByBlock
100
AcDbPolyline
 90
        6
 70
     0
 43
0.0
 10
-6881.923924750397
 20
-22482.84808425473
 10
-6885.240880316803
 20
-22480.39575271176
 10
-6888.636967963288
 20
-22478.05035476254
 10
-6892.108464545319
 20
-22475.81494216489
 10
-6894.75574237735
 20
-22474.20562820005
 10
-6897.432042426178
 20
-22472.64300612973
  0
LWPOLYLINE
  5
85
330
2
100
AcDbEntity
  8
Access .2
  6
ByBlock
100
AcDbPolyline
 90
        6
 70
     0
 43
0.0
 10
-6881.923924750397
 20
-22770.04534987973
 10
-6885.240880316803
 20
-22772.4976814227
 10
-6888.636967963288
 20
-22774.84307937192
 10
-6892.108464545319
 20
-22777.07849196958
 10
-6894.75574237735
 20
-22778.68780593442
 10
-6897.432042426178
 20
-22780.25042800473
  0
LWPOLYLINE
  5
86
330
2
100
AcDbEntity
  8
Access .2
  6
ByBlock
100
AcDbPolyline
 90
        9
 70
     0
 43
0.0
 10
-6781.419652289459
 20
-22798.84063796567
 10
-6806.30682880313
 20
-22800.12121657895
 10
-6831.492589301177
 20
-22801.28955153989
 10
-6856.881657904693
 20
-22802.3306892352
 10
-6882.308598822662
 20
-22803.24231032895
 10
-6907.962163275787
 20
-22804.04394607114
 10
-6933.942967719146
 20
-22804.75506667661
 10
-6968.879094428131
 20
-22805.59375075864
 10
-6986.848393744537
 20
-22805.99304275082
  0
LWPOLYLINE
  5
87
330
2
100
AcDbEntity
  8
Access .2
  6
ByBlock
100
AcDbPolyline
 90
        9
 70
     0
 43
0.0
 10
-6781.419652289459
 20
-22454.0527961688
 10
-6806.30682880313
 20
-22452.77221755551
 10
-6831.492589301177
 20
-22451.60388259458
 10
-6856.881657904693
 20
-22450.56274489926
 10
-6882.308598822662
 20
-22449.65112380552
 10
-6907.962163275787
 20
-22448.84948806333
 10
-6933.942967719146
 20
-22448.13836745786
 10
-6968.879094428131
 20
-22447.29968337582
 10
-6986.848393744537
 20
-22446.90039138364
  0
ARC
  5
88
330
2
100
AcDbEntity
  8
Access .2
  6
ByBlock
100
AcDbCircle
 10
-6997.2777150336
 20
-22626.44024734067
 30
0.0
 40
105.2026977539062
100
AcDbArc
 50
354.540106820065
 51
359.9964889730214
  0
ARC
  5
89
330
2
100
AcDbEntity
  8
Access .2
  6
ByBlock
100
AcDbCircle
 10
-7006.756841010163
 20
-22605.77490310239
 30
0.0
 40
128.1183013916015
100
AcDbArc
 50
277.247886875329
 51
285.0294937264999
  0
LWPOLYLINE
  5
8A
330
2
100
AcDbEntity
  8
Access .2
  6
ByBlock
100
AcDbPolyline
 90
        9
 70
     0
 43
0.0
 10
-6965.980290717194
 20
-22802.48815993833
 10
-6970.195744818756
 20
-22802.84301833676
 10
-6974.415227240631
 20
-22803.15112380551
 10
-6978.636479682037
 20
-22803.43103103207
 10
-6984.953923529693
 20
-22803.80871657895
 10
-6991.235112494537
 20
-22804.12097243833
 10
-6995.323979682037
 20
-22804.27496413754
 10
-7002.112737006256
 20
-22804.42199782895
 10
-7007.522038764069
 20
-22804.44671706723
  0
LWPOLYLINE
  5
8B
330
2
100
AcDbEntity
  8
Access .2
  6
ByBlock
100
AcDbPolyline
 90
        9
 70
     0
 43
0.0
 10
-7042.431035346099
 20
-22802.23571853208
 10
-7035.562321967194
 20
-22802.98767165708
 10
-7028.648259467193
 20
-22803.60070876645
 10
-7025.143925971099
 20
-22803.85241775082
 10
-7021.628178900788
 20
-22804.06262282895
 10
-7018.161259955475
 20
-22804.22662429379
 10
-7014.686040228912
 20
-22804.3463142352
 10
-7011.106145209381
 20
-22804.4215095477
 10
-7007.522038764069
 20
-22804.44671706723
  0
ARC
  5
8C
330
2
100
AcDbEntity
  8
Access .2
  6
ByBlock
100
AcDbCircle
 10
-6993.997746771881
 20
-22477.31872634457
 30
0.0
 40
328.7527770996094
100
AcDbArc
 50
260.1413369619329
 51
271.2461040539164
  0
ARC
  5
8D
330
2
100
AcDbEntity
  8
Access .2
  6
ByBlock
100
AcDbCircle
 10
-7006.873845404694
 20
-22433.02453689145
 30
0.0
 40
371.42041015625
100
AcDbArc
 50
270.0840156522395
 51
272.5670900494539
  0
ARC
  5
8E
330
2
100
AcDbEntity
  8
Access .2
  6
ByBlock
100
AcDbCircle
 10
-7006.894841498443
 20
-22432.54773025083
 30
0.0
 40
371.8975524902344
100
AcDbArc
 50
270.0869662957347
 51
272.5655737025086
  0
LWPOLYLINE
  5
8F
330
2
100
AcDbEntity
  8
Access .2
  6
ByBlock
100
AcDbPolyline
 90
        6
 70
     0
 43
0.0
 10
-7007.522038764069
 20
-22733.94671706723
 10
-7012.735295600006
 20
-22733.87347487973
 10
-7017.978215521882
 20
-22733.65716628598
 10
-7023.264653510162
 20
-22733.30621413755
 10
-7028.597905463287
 20
-22732.83160476255
 10
-7034.100041693756
 20
-22732.22973708676
  0
LWPOLYLINE
  5
90
330
2
100
AcDbEntity
  8
Access .2
  6
ByBlock
100
AcDbPolyline
 90
        5
 70
     0
 43
0.0
 10
-7056.541203803131
 20
-22728.70678786802
 10
-7050.957524603912
 20
-22729.74762038755
 10
-7045.353459662506
 20
-22730.67712478208
 10
-7039.733403510162
 20
-22731.50433425473
 10
-7034.100041693756
 20
-22732.22949294614
  0
ARC
  5
91
330
2
100
AcDbEntity
  8
Access .2
  6
ByBlock
100
AcDbCircle
 10
-7007.497685736725
 20
-22600.4912727313
 30
0.0
 40
133.454833984375
100
AcDbArc
 50
270.6664190339322
 51
277.2772159269762
  0
ARC
  5
92
330
2
100
AcDbEntity
  8
Access .2
  6
ByBlock
100
AcDbCircle
 10
-7007.520940131256
 20
-22600.10955886411
 30
0.0
 40
133.837158203125
100
AcDbArc
 50
269.9995262124785
 51
270.6703054516554
  0
ARC
  5
93
330
2
100
AcDbEntity
  8
Access .2
  6
ByBlock
100
AcDbCircle
 10
-7007.535954779694
 20
-22599.50189284848
 30
0.0
 40
134.4448089599609
100
AcDbArc
 50
270.0059329297222
 51
270.6778254804878
  0
LWPOLYLINE
  5
94
330
2
100
AcDbEntity
  8
Access .2
  6
ByBlock
100
AcDbPolyline
 90
       12
 70
     0
 43
0.0
 10
-6897.432042426178
 20
-22780.25042800473
 10
-6901.80292255313
 20
-22782.69445876645
 10
-6906.225926703521
 20
-22785.04711989926
 10
-6910.7005665961
 20
-22787.30255202817
 10
-6912.959294623444
 20
-22788.38617019223
 10
-6915.233708685943
 20
-22789.43524245786
 10
-6917.524907416413
 20
-22790.44580153989
 10
-6919.833562201569
 20
-22791.41455153989
 10
-6922.05438739688
 20
-22792.29821853208
 10
-6924.291051215241
 20
-22793.14074782895
 10
-6926.756627387115
 20
-22794.01684646177
 10
-6929.237431830475
 20
-22794.84814528989
  0
LWPOLYLINE
  5
95
330
2
100
AcDbEntity
  8
Access .2
  6
ByBlock
100
AcDbPolyline
 90
        7
 70
     0
 43
0.0
 10
-6929.237431830475
 20
-22794.84814528989
 10
-6933.421544379303
 20
-22796.14923171567
 10
-6937.635869330475
 20
-22797.3482673602
 10
-6941.875249213286
 20
-22798.45098952817
 10
-6946.136571234771
 20
-22799.45123366879
 10
-6950.418095892975
 20
-22800.33709792661
 10
-6954.718694037506
 20
-22801.09722976255
  0
LWPOLYLINE
  5
96
330
2
100
AcDbEntity
  8
Access .2
  6
ByBlock
100
AcDbPolyline
 90
        5
 70
     0
 43
0.0
 10
-6954.711980170319
 20
-22801.13763503598
 10
-6957.283452338287
 20
-22801.52392653989
 10
-6959.861760443756
 20
-22801.86474685239
 10
-6962.917241400787
 20
-22802.21399001645
 10
-6965.978154486724
 20
-22802.51300124692
  0
ELLIPSE
  5
97
330
2
100
AcDbEntity
  8
Access .2
  6
ByBlock
100
AcDbEllipse
 10
-7031.163213080475
 20
-22600.79730300473
 30
0.0
 11
118.2216186523437
 21
-88.52703857421879
 31
0.0
210
0.0
220
0.0
230
1.0
 40
0.8422167034274464
 41
5.972350120544431
 42
6.182943820953367
  0
ELLIPSE
  5
98
330
2
100
AcDbEntity
  8
Access .2
  6
ByBlock
100
AcDbEllipse
 10
-7027.903142279694
 20
-22605.76953200864
 30
0.0
 11
117.613037109375
 21
-79.77679443359375
 31
0.0
210
0.0
220
0.0
230
1.0
 40
0.8532996340897769
 41
5.648682594299316
 42
5.926985263824461
  0
ARC
  5
99
330
2
100
AcDbEntity
  8
Access .2
  6
ByBlock
100
AcDbCircle
 10
-6996.598943060944
 20
-22626.71264724302
 30
0.0
 40
104.4921035766601
100
AcDbArc
 50
316.3459145638702
 51
330.0076695820374
  0
LWPOLYLINE
  5
9A
330
2
100
AcDbEntity
  8
Access .2
  6
ByBlock
100
AcDbPolyline
 90
       13
 70
     0
 43
0.0
 10
-6892.552190131256
 20
-22636.45019607114
 10
-6892.998021430084
 20
-22640.35113601254
 10
-6893.587560004303
 20
-22644.22729568051
 10
-6894.318333930084
 20
-22648.0699470477
 10
-6895.187962836335
 20
-22651.87176589536
 10
-6896.19421893985
 20
-22655.62683181333
 10
-6897.334782904692
 20
-22659.33020095395
 10
-6898.607396430084
 20
-22662.97766189145
 10
-6899.892369574615
 20
-22666.27984695005
 10
-6901.285405463287
 20
-22669.52941970395
 10
-6902.78503925235
 20
-22672.72473220395
 10
-6904.389989203521
 20
-22675.86419753598
 10
-6906.099461859771
 20
-22678.94641189145
  0
ARC
  5
9B
330
2
100
AcDbEntity
  8
Access .2
  6
ByBlock
100
AcDbCircle
 10
-7006.756841010163
 20
-22647.11853103208
 30
0.0
 40
128.1183013916015
100
AcDbArc
 50
74.97050627350003
 51
82.75211312467105
  0
LWPOLYLINE
  5
9C
330
2
100
AcDbEntity
  8
Access .2
  6
ByBlock
100
AcDbPolyline
 90
        9
 70
     0
 43
0.0
 10
-6965.980290717194
 20
-22450.40527419614
 10
-6970.195744818756
 20
-22450.0504157977
 10
-6974.415227240631
 20
-22449.74231032895
 10
-6978.636479682037
 20
-22449.46240310239
 10
-6984.953923529693
 20
-22449.08471755552
 10
-6991.235112494537
 20
-22448.77246169614
 10
-6995.323979682037
 20
-22448.61846999692
 10
-7002.112737006256
 20
-22448.47143630551
 10
-7007.522038764069
 20
-22448.44671706723
  0
LWPOLYLINE
  5
9D
330
2
100
AcDbEntity
  8
Access .2
  6
ByBlock
100
AcDbPolyline
 90
        6
 70
     0
 43
0.0
 10
-7007.522038764069
 20
-22518.94671706723
 10
-7012.735295600006
 20
-22519.01995925473
 10
-7017.978215521882
 20
-22519.23626784848
 10
-7023.264653510162
 20
-22519.58721999692
 10
-7028.597905463287
 20
-22520.06182937192
 10
-7034.100041693756
 20
-22520.6636970477
  0
LWPOLYLINE
  5
9E
330
2
100
AcDbEntity
  8
Access .2
  6
ByBlock
100
AcDbPolyline
 90
        5
 70
     0
 43
0.0
 10
-7056.541203803131
 20
-22524.18664626645
 10
-7050.957524603912
 20
-22523.14581374692
 10
-7045.353459662506
 20
-22522.21630935239
 10
-7039.733403510162
 20
-22521.38909987973
 10
-7034.100041693756
 20
-22520.66394118833
  0
ARC
  5
9F
330
2
100
AcDbEntity
  8
Access .2
  6
ByBlock
100
AcDbCircle
 10
-7007.503545111724
 20
-22652.38824538755
 30
0.0
 40
133.4412384033203
100
AcDbArc
 50
82.71953300181525
 51
89.33099913171886
  0
ARC
  5
A0
330
2
100
AcDbEntity
  8
Access .2
  6
ByBlock
100
AcDbCircle
 10
-7007.520940131256
 20
-22652.78387527036
 30
0.0
 40
133.837158203125
100
AcDbArc
 50
89.3296945483445
 51
90.00047378752142
  0
LWPOLYLINE
  5
A1
330
2
100
AcDbEntity
  8
Access .2
  6
ByBlock
100
AcDbPolyline
 90
        9
 70
     0
 43
0.0
 10
-7042.431035346099
 20
-22450.65771560239
 10
-7035.562321967194
 20
-22449.90576247739
 10
-7028.648259467193
 20
-22449.29272536801
 10
-7025.143925971099
 20
-22449.04101638364
 10
-7021.628178900788
 20
-22448.83081130551
 10
-7018.161259955475
 20
-22448.66680984067
 10
-7014.686040228912
 20
-22448.54711989926
 10
-7011.106145209381
 20
-22448.47192458677
 10
-7007.522038764069
 20
-22448.44671706723
  0
ARC
  5
A2
330
2
100
AcDbEntity
  8
Access .2
  6
ByBlock
100
AcDbCircle
 10
-6993.997746771881
 20
-22775.57470778989
 30
0.0
 40
328.7528076171875
100
AcDbArc
 50
88.75389594608355
 51
99.8588208081458
  0
ARC
  5
A3
330
2
100
AcDbEntity
  8
Access .2
  6
ByBlock
100
AcDbCircle
 10
-7006.873845404694
 20
-22819.86889724302
 30
0.0
 40
371.42041015625
100
AcDbArc
 50
87.43290995054605
 51
89.91598434770837
  0
ARC
  5
A4
330
2
100
AcDbEntity
  8
Access .2
  6
ByBlock
100
AcDbCircle
 10
-7006.894841498443
 20
-22820.34570388364
 30
0.0
 40
371.8975524902344
100
AcDbArc
 50
87.43442629749138
 51
89.9130337042132
  0
ELLIPSE
  5
A5
330
2
100
AcDbEntity
  8
Access .2
  6
ByBlock
100
AcDbEllipse
 10
-7031.163213080475
 20
-22652.09613112973
 30
0.0
 11
118.2216186523437
 21
88.52709960937501
 31
0.0
210
0.0
220
0.0
230
1.0
 40
0.8422167034274464
 41
0.1002415418624878
 42
0.3108353316783905
  0
ELLIPSE
  5
A6
330
2
100
AcDbEntity
  8
Access .2
  6
ByBlock
100
AcDbEllipse
 10
-7027.903142279694
 20
-22647.12390212582
 30
0.0
 11
117.613037109375
 21
79.77679443359375
 31
0.0
210
0.0
220
0.0
230
1.0
 40
0.8532996340897769
 41
0.3562000691890716
 42
0.6345028877258301
  0
ARC
  5
A7
330
2
100
AcDbEntity
  8
Access .2
  6
ByBlock
100
AcDbCircle
 10
-6996.598943060944
 20
-22626.18078689145
 30
0.0
 40
104.4921035766601
100
AcDbArc
 50
29.99233041796263
 51
43.65408543612979
  0
LWPOLYLINE
  5
A8
330
2
100
AcDbEntity
  8
Access .2
  6
ByBlock
100
AcDbPolyline
 90
       13
 70
     0
 43
0.0
 10
-6892.552190131256
 20
-22616.44323806333
 10
-6892.998021430084
 20
-22612.54229812192
 10
-6893.587560004303
 20
-22608.66613845395
 10
-6894.318333930084
 20
-22604.82348708676
 10
-6895.187962836335
 20
-22601.02166823911
 10
-6896.19421893985
 20
-22597.26660232114
 10
-6897.334782904692
 20
-22593.56323318051
 10
-6898.607396430084
 20
-22589.91577224302
 10
-6899.892369574615
 20
-22586.61358718442
 10
-6901.285405463287
 20
-22583.36401443052
 10
-6902.78503925235
 20
-22580.16870193051
 10
-6904.389989203521
 20
-22577.02923659848
 10
-6906.099461859771
 20
-22573.94702224301
  0
ARC
  5
A9
330
2
100
AcDbEntity
  8
Access .2
  6
ByBlock
100
AcDbCircle
 10
-6997.167973822662
 20
-22626.45037917661
 30
0.0
 40
105.0930404663086
100
AcDbArc
 50
0.0019822158214878
 51
5.464056288181773
  0
LWPOLYLINE
  5
AA
330
2
100
AcDbEntity
  8
Access .2
  6
ByBlock
100
AcDbPolyline
 90
        7
 70
     0
 43
0.0
 10
-6929.237431830475
 20
-22458.04528884458
 10
-6933.421544379303
 20
-22456.7442024188
 10
-6937.635869330475
 20
-22455.54516677426
 10
-6941.875249213286
 20
-22454.44244460629
 10
-6946.136571234771
 20
-22453.44220046567
 10
-6950.418095892975
 20
-22452.55633620786
 10
-6954.718694037506
 20
-22451.79620437192
  0
LWPOLYLINE
  5
AB
330
2
100
AcDbEntity
  8
Access .2
  6
ByBlock
100
AcDbPolyline
 90
        5
 70
     0
 43
0.0
 10
-6954.711980170319
 20
-22451.75579909848
 10
-6957.283452338287
 20
-22451.36950759458
 10
-6959.861760443756
 20
-22451.02868728208
 10
-6962.917241400787
 20
-22450.67944411801
 10
-6965.978154486724
 20
-22450.38043288754
  0
LWPOLYLINE
  5
AC
330
2
100
AcDbEntity
  8
Access .2
  6
ByBlock
100
AcDbPolyline
 90
       12
 70
     0
 43
0.0
 10
-6897.432042426178
 20
-22472.64300612973
 10
-6901.80292255313
 20
-22470.19897536802
 10
-6906.225926703521
 20
-22467.8463142352
 10
-6910.7005665961
 20
-22465.59088210629
 10
-6912.959294623444
 20
-22464.50726394223
 10
-6915.233708685943
 20
-22463.45819167661
 10
-6917.524907416413
 20
-22462.44763259458
 10
-6919.833562201569
 20
-22461.47888259458
 10
-6922.05438739688
 20
-22460.59521560239
 10
-6924.291051215241
 20
-22459.75268630552
 10
-6926.756627387115
 20
-22458.8765876727
 10
-6929.237431830475
 20
-22458.04528884458
  0
LINE
  5
AD
330
2
100
AcDbEntity
  8
Access .2
  6
ByBlock
100
AcDbLine
 10
-6816.022404975005
 20
-22682.95294265317
 30
0.0
 11
-6816.022404975005
 21
-22626.44671706723
 31
0.0
  0
LINE
  5
AE
330
2
100
AcDbEntity
  8
Access .1
  6
ByBlock
100
AcDbLine
 10
-6771.848698920319
 20
-22626.44671706723
 30
0.0
 11
-6771.848698920319
 21
-22673.94671706723
 31
0.0
  0
ARC
  5
B0
330
2
100
AcDbEntity
  8
Access .1
  6
ByBlock
100
AcDbCircle
 10
-6809.925359076569
 20
-22706.81774978208
 30
0.0
 40
25.5
100
AcDbArc
 50
241.3521155028309
 51
103.8314361966545
  0
ARC
  5
B1
330
2
100
AcDbEntity
  8
Access .2
  6
ByBlock
100
AcDbCircle
 10
-6895.859196967193
 20
-22704.21728591489
 30
0.0
 40
55.00863647460938
100
AcDbArc
 50
336.6973096192794
 51
347.7624636542864
  0
LINE
  5
B2
330
2
100
AcDbEntity
  8
Access .2
  6
ByBlock
100
AcDbLine
 10
-6866.791234320709
 20
-22756.52471999692
 30
0.0
 11
-6866.299321478912
 21
-22756.01483230161
 31
0.0
  0
ARC
  5
B3
330
2
100
AcDbEntity
  8
Access .2
  6
ByBlock
100
AcDbCircle
 10
-6941.804631537507
 20
-22684.89422683286
 30
0.0
 40
103.7677307128906
100
AcDbArc
 50
316.4403312221984
 51
318.4325552788234
  0
ARC
  5
B4
330
2
100
AcDbEntity
  8
Access .2
  6
ByBlock
100
AcDbCircle
 10
-6972.1712697211
 20
-22653.97570876645
 30
0.0
 40
147.0522308349609
100
AcDbArc
 50
309.8161973376765
 51
314.404985656018
  0
ARC
  5
B5
330
2
100
AcDbEntity
  8
Access .2
  6
ByBlock
100
AcDbCircle
 10
-6961.239873236725
 20
-22666.96887282895
 30
0.0
 40
130.0720825195312
100
AcDbArc
 50
307.5777554621428
 51
309.7858000318697
  0
ARC
  5
B6
330
2
100
AcDbEntity
  8
Access .2
  6
ByBlock
100
AcDbCircle
 10
-6953.277928656646
 20
-22673.96337966489
 30
0.0
 40
119.6146850585937
100
AcDbArc
 50
314.6384289552434
 51
316.4332607978435
  0
LINE
  5
B7
330
2
100
AcDbEntity
  8
Access .2
  6
ByBlock
100
AcDbLine
 10
-6866.790959662506
 20
-22756.52447585629
 30
0.0
 11
-6866.628484076568
 21
-22756.38165359067
 31
0.0
  0
ARC
  5
B8
330
2
100
AcDbEntity
  8
Access .2
  6
ByBlock
100
AcDbCircle
 10
-6956.630193060944
 20
-22668.60888747739
 30
0.0
 40
125.6765518188476
100
AcDbArc
 50
321.1992596778852
 51
323.6916013780196
  0
ARC
  5
B9
330
2
100
AcDbEntity
  8
Access .2
  6
ByBlock
100
AcDbCircle
 10
-6952.462590521881
 20
-22672.0816657977
 30
0.0
 40
120.2538757324218
100
AcDbArc
 50
321.2438754227705
 51
323.8164981467184
  0
ARC
  5
BA
330
2
100
AcDbEntity
  8
Access .2
  6
ByBlock
100
AcDbCircle
 10
-6957.909367865631
 20
-22667.67419509458
 30
0.0
 40
127.2607192993164
100
AcDbArc
 50
317.6754592546294
 51
321.2315859949825
  0
LINE
  5
BB
330
2
100
AcDbEntity
  8
Access .2
  6
ByBlock
100
AcDbLine
 10
-6866.299321478912
 20
-22756.01483230161
 30
0.0
 11
-6865.859624213287
 21
-22755.5547492938
 31
0.0
  0
ARC
  5
BC
330
2
100
AcDbEntity
  8
Access .2
  6
ByBlock
100
AcDbCircle
 10
-6963.415471381257
 20
-22662.72894362973
 30
0.0
 40
134.6617126464844
100
AcDbArc
 50
316.4232167671768
 51
317.6972214864373
  0
LWPOLYLINE
  5
BD
330
2
100
AcDbEntity
  8
Access .2
  6
ByBlock
100
AcDbPolyline
 90
        6
 70
     0
 43
0.0
 10
-6847.558903998444
 20
-22730.64050368833
 10
-6849.014348334382
 20
-22733.30291823911
 10
-6850.880009955474
 20
-22736.4302986102
 10
-6852.875035590241
 20
-22739.50543288755
 10
-6854.991765326568
 20
-22742.52777175473
 10
-6855.35501605899
 20
-22743.02575759458
  0
LWPOLYLINE
  5
BE
330
2
100
AcDbEntity
  8
Access .2
  6
ByBlock
100
AcDbPolyline
 90
        6
 70
     0
 43
0.0
 10
-6847.59525043399
 20
-22730.69775466489
 10
-6848.46683246524
 20
-22732.30999831723
 10
-6849.372441596099
 20
-22733.9010017352
 10
-6851.275060004303
 20
-22737.02710036801
 10
-6853.287999457427
 20
-22740.08471755551
 10
-6855.402745551178
 20
-22743.0758064227
  0
ARC
  5
BF
330
2
100
AcDbEntity
  8
Access .2
  6
ByBlock
100
AcDbCircle
 10
-6908.512791937896
 20
-22698.70452956723
 30
0.0
 40
68.81294250488281
100
AcDbArc
 50
332.3483057145974
 51
336.6533868349895
  0
ARC
  5
C0
330
2
100
AcDbEntity
  8
Access .2
  6
ByBlock
100
AcDbCircle
 10
-6910.195103949615
 20
-22697.76117019223
 30
0.0
 40
70.73577880859375
100
AcDbArc
 50
332.2491093955454
 51
334.7466459206621
  0
ARC
  5
C1
330
2
100
AcDbEntity
  8
Access .2
  6
ByBlock
100
AcDbCircle
 10
-6899.842931098053
 20
-22702.56652907895
 30
0.0
 40
59.32105255126953
100
AcDbArc
 50
334.6781198075782
 51
336.7550870708196
  0
LWPOLYLINE
  5
C2
330
2
100
AcDbEntity
  8
Access .1
  6
ByBlock
100
AcDbPolyline
 90
        8
 70
     0
 43
0.0
 10
-6837.43900043399
 20
-22705.81750564145
 10
-6837.428563422271
 20
-22706.15722732114
 10
-6837.402653998444
 20
-22706.31683425473
 10
-6837.316960639069
 20
-22706.52771071957
 10
-6837.106297797271
 20
-22706.72070388364
 10
-6836.961583441802
 20
-22706.77624587583
 10
-6836.636052435943
 20
-22706.8160407977
 10
-6836.470586127349
 20
-22706.81750564145
  0
LWPOLYLINE
  5
C3
330
2
100
AcDbEntity
  8
Access .1
  6
ByBlock
100
AcDbPolyline
 90
        8
 70
     0
 43
0.0
 10
-6818.375340766022
 20
-22705.81774978208
 10
-6818.390843695709
 20
-22706.1148689227
 10
-6818.423283881256
 20
-22706.25878982114
 10
-6818.515752142975
 20
-22706.45794753598
 10
-6818.746709174225
 20
-22706.68469314145
 10
-6818.894200629303
 20
-22706.75628737973
 10
-6819.218571967194
 20
-22706.81530837582
 10
-6819.375340766021
 20
-22706.81774978208
  0
ARC
  5
C4
330
2
100
AcDbEntity
  8
Access .2
  6
ByBlock
100
AcDbCircle
 10
-6926.635167426178
 20
-22701.9609992938
 30
0.0
 40
85.91203308105468
100
AcDbArc
 50
356.8533082846601
 51
359.6036790168867
  0
LINE
  5
C5
330
2
100
AcDbEntity
  8
Access .1
  6
ByBlock
100
AcDbLine
 10
-6832.668034857817
 20
-22706.81774978208
 30
0.0
 11
-6819.375340766021
 21
-22706.81774978208
 31
0.0
  0
ARC
  5
C6
330
2
100
AcDbEntity
  8
Access .1
  6
ByBlock
100
AcDbCircle
 10
-6809.925359076569
 20
-22706.81774978208
 30
0.0
 40
25.5
100
AcDbArc
 50
198.2687419352304
 51
241.3521155028309
  0
ARC
  5
C7
330
2
100
AcDbEntity
  8
Access .1
  6
ByBlock
100
AcDbCircle
 10
-6809.925359076569
 20
-22706.81774978208
 30
0.0
 40
25.5
100
AcDbArc
 50
196.328313730717
 51
198.2183086315664
  0
LINE
  5
C8
330
2
100
AcDbEntity
  8
Access .1
  6
ByBlock
100
AcDbLine
 10
-6836.465550726959
 20
-22706.81774978208
 30
0.0
 11
-6832.668034857817
 21
-22706.81774978208
 31
0.0
  0
LINE
  5
C9
330
2
100
AcDbEntity
  8
Access .2
  6
ByBlock
100
AcDbLine
 10
-6842.088963812897
 20
-22715.87780837583
 30
0.0
 11
-6842.040837592193
 21
-22715.6519782977
 31
0.0
  0
LWPOLYLINE
  5
CA
330
2
100
AcDbEntity
  8
Access .2
  6
ByBlock
100
AcDbPolyline
 90
        5
 70
     0
 43
0.0
 10
-6840.853307074616
 20
-22706.67688064145
 10
-6841.080418891022
 20
-22709.4547126727
 10
-6841.422368353912
 20
-22712.18139724302
 10
-6841.705815619537
 20
-22713.92742995786
 10
-6842.040837592193
 20
-22715.6519782977
  0
LINE
  5
CB
330
2
100
AcDbEntity
  8
Access .1
  6
ByBlock
100
AcDbLine
 10
-6834.396855658599
 20
-22713.98681716489
 30
0.0
 11
-6834.403203314849
 21
-22713.96502761411
 31
0.0
  0
ARC
  5
CC
330
2
100
AcDbEntity
  8
Access .1
  6
ByBlock
100
AcDbCircle
 10
-6809.925359076569
 20
-22706.81774978208
 30
0.0
 40
25.5
100
AcDbArc
 50
180.0000496324717
 51
196.2773204800072
  0
LINE
  5
CD
330
2
100
AcDbEntity
  8
Access .1
  6
ByBlock
100
AcDbLine
 10
-6836.409184760163
 20
-22706.81774978208
 30
0.0
 11
-6836.475346869537
 21
-22706.81774978208
 31
0.0
  0
LINE
  5
CE
330
2
100
AcDbEntity
  8
Access .1
  6
ByBlock
100
AcDbLine
 10
-6836.465550726959
 20
-22706.81774978208
 30
0.0
 11
-6836.475346869537
 21
-22706.81774978208
 31
0.0
  0
LINE
  5
CF
330
2
100
AcDbEntity
  8
Access .1
  6
ByBlock
100
AcDbLine
 10
-6834.140050238677
 20
-22714.81134109067
 30
0.0
 11
-6834.147008246491
 21
-22714.79022292661
 31
0.0
  0
LINE
  5
D0
330
2
100
AcDbEntity
  8
Access .2
  6
ByBlock
100
AcDbLine
 10
-6834.037541693756
 20
-22685.95294265317
 30
0.0
 11
-6821.511449164458
 21
-22685.95153884457
 31
0.0
  0
LINE
  5
D1
330
2
100
AcDbEntity
  8
Access .1
  6
ByBlock
100
AcDbLine
 10
-6821.801762885162
 20
-22686.16772536801
 30
0.0
 11
-6836.475346869537
 21
-22686.16772536801
 31
0.0
  0
LINE
  5
D2
330
2
100
AcDbEntity
  8
Access .1
  6
ByBlock
100
AcDbLine
 10
-6832.668034857817
 20
-22686.16772536801
 30
0.0
 11
-6819.375340766021
 21
-22686.16772536801
 31
0.0
  0
LINE
  5
D3
330
2
100
AcDbEntity
  8
Access .2
  6
ByBlock
100
AcDbLine
 10
-6834.037144965241
 20
-22685.95294265317
 30
0.0
 11
-6821.511449164458
 21
-22685.95153884457
 31
0.0
  0
LINE
  5
D4
330
2
100
AcDbEntity
  8
Access .2
  6
ByBlock
100
AcDbLine
 10
-6839.72351581485
 20
-22685.9527595477
 30
0.0
 11
-6834.037755316803
 21
-22685.95294265317
 31
0.0
  0
LINE
  5
D5
330
2
100
AcDbEntity
  8
Access .1
  6
ByBlock
100
AcDbLine
 10
-6836.465550726959
 20
-22686.16772536801
 30
0.0
 11
-6832.668034857817
 21
-22686.16772536801
 31
0.0
  0
LINE
  5
D6
330
2
100
AcDbEntity
  8
Access .2
  6
ByBlock
100
AcDbLine
 10
-6839.72351581485
 20
-22685.9527595477
 30
0.0
 11
-6834.037358588287
 21
-22685.95294265317
 31
0.0
  0
ARC
  5
D7
330
2
100
AcDbEntity
  8
Access .2
  6
ByBlock
100
AcDbCircle
 10
-7703.230046576568
 20
-22688.98968581723
 30
0.0
 40
862.5088500976563
100
AcDbArc
 50
359.8960611032388
 51
0.1352536547404446
  0
LWPOLYLINE
  5
D8
330
2
100
AcDbEntity
  8
Access .1
  6
ByBlock
100
AcDbPolyline
 90
        7
 70
     0
 43
0.0
 10
-6837.43900043399
 20
-22687.16772536802
 10
-6837.417821234772
 20
-22686.83252028989
 10
-6837.342442816804
 20
-22686.59808425473
 10
-6837.204472846099
 20
-22686.40252761411
 10
-6837.010075873443
 20
-22686.26153640317
 10
-6836.785802191802
 20
-22686.18817214536
 10
-6836.465550726959
 20
-22686.16772536801
  0
LINE
  5
D9
330
2
100
AcDbEntity
  8
Access .2
  6
ByBlock
100
AcDbLine
 10
-6840.722173041412
 20
-22687.89825515317
 30
0.0
 11
-6840.723393744537
 21
-22686.95336989926
 31
0.0
  0
ARC
  5
DA
330
2
100
AcDbEntity
  8
Access .2
  6
ByBlock
100
AcDbCircle
 10
-5883.328557318755
 20
-22693.46991042661
 30
0.0
 40
957.3986206054687
100
AcDbArc
 50
179.8255209984328
 51
180.1416631346067
  0
LINE
  5
DB
330
2
100
AcDbEntity
  8
Access .2
  6
ByBlock
100
AcDbLine
 10
-6840.722356146881
 20
-22688.44250564145
 30
0.0
 11
-6840.721593207428
 21
-22688.08862380551
 31
0.0
  0
LINE
  5
DC
330
2
100
AcDbEntity
  8
Access .2
  6
ByBlock
100
AcDbLine
 10
-6840.722142523834
 20
-22688.08862380551
 30
0.0
 11
-6840.722203558991
 21
-22687.89825515317
 31
0.0
  0
ARC
  5
DD
330
2
100
AcDbEntity
  8
Access .2
  6
ByBlock
100
AcDbCircle
 10
-7078.707829779694
 20
-22700.19415359067
 30
0.0
 40
237.9954071044922
100
AcDbArc
 50
359.4315813595581
 51
0.1006118806354893
  0
ARC
  5
DE
330
2
100
AcDbEntity
  8
Access .2
  6
ByBlock
100
AcDbCircle
 10
-8425.633000678132
 20
-22702.42303542661
 30
0.0
 40
1584.921997070312
100
AcDbArc
 50
0.0956825014067672
 51
0.2381115402619138
  0
ARC
  5
DF
330
2
100
AcDbEntity
  8
Access .2
  6
ByBlock
100
AcDbCircle
 10
-5883.404362982817
 20
-22693.44586257505
 30
0.0
 40
957.32275390625
100
AcDbArc
 50
179.8269416682639
 51
180.1430701443706
  0
ARC
  5
E0
330
2
100
AcDbEntity
  8
Access .2
  6
ByBlock
100
AcDbCircle
 10
-7373.180547064849
 20
-22689.20044021176
 30
0.0
 40
532.4594116210938
100
AcDbArc
 50
359.8543197941883
 51
0.0815589962574986
  0
LINE
  5
E1
330
2
100
AcDbEntity
  8
Access .1
  6
ByBlock
100
AcDbLine
 10
-6837.43900043399
 20
-22689.52172927427
 30
0.0
 11
-6837.43900043399
 21
-22705.81750564145
 31
0.0
  0
LINE
  5
E2
330
2
100
AcDbEntity
  8
Access .1
  6
ByBlock
100
AcDbLine
 10
-6837.805821723053
 20
-22705.19604568051
 30
0.0
 11
-6837.805821723053
 21
-22705.19451980161
 31
0.0
  0
LINE
  5
E3
330
2
100
AcDbEntity
  8
Access .1
  6
ByBlock
100
AcDbLine
 10
-6837.43900043399
 20
-22689.50085525083
 30
0.0
 11
-6837.43900043399
 21
-22687.16772536802
 31
0.0
  0
LINE
  5
E4
330
2
100
AcDbEntity
  8
Access .1
  6
ByBlock
100
AcDbLine
 10
-6837.638585394927
 20
-22690.01922683286
 30
0.0
 11
-6837.638585394927
 21
-22690.0172126727
 31
0.0
  0
LINE
  5
E5
330
2
100
AcDbEntity
  8
Access .2
  6
ByBlock
100
AcDbLine
 10
-6839.752385443756
 20
-22685.9531867938
 30
0.0
 11
-6839.72351581485
 21
-22685.9527595477
 31
0.0
  0
LINE
  5
E6
330
2
100
AcDbEntity
  8
Access .2
  6
ByBlock
100
AcDbLine
 10
-6839.795995062897
 20
-22685.95538405942
 30
0.0
 11
-6839.72351581485
 21
-22685.9527595477
 31
0.0
  0
ARC
  5
E7
330
2
100
AcDbEntity
  8
Access .2
  6
ByBlock
100
AcDbCircle
 10
-6839.723088568756
 20
-22686.95282058286
 30
0.0
 40
1.000086426734924
100
AcDbArc
 50
94.27064648709425
 51
180.0461907455003
  0
LINE
  5
E8
330
2
100
AcDbEntity
  8
Access .1
  6
ByBlock
100
AcDbLine
 10
-6836.465550726959
 20
-22686.16772536801
 30
0.0
 11
-6836.475346869537
 21
-22686.16772536801
 31
0.0
  0
LINE
  5
E9
330
2
100
AcDbEntity
  8
Access .1
  6
ByBlock
100
AcDbLine
 10
-6836.475346869537
 20
-22686.16772536801
 30
0.0
 11
-6836.465550726959
 21
-22686.16772536801
 31
0.0
  0
LWPOLYLINE
  5
EA
330
2
100
AcDbEntity
  8
Access .1
  6
ByBlock
100
AcDbPolyline
 90
        8
 70
     0
 43
0.0
 10
-6818.375340766022
 20
-22687.16772536802
 10
-6818.390843695709
 20
-22686.87054519223
 10
-6818.423283881256
 20
-22686.7266242938
 10
-6818.515752142975
 20
-22686.52746657895
 10
-6818.746709174225
 20
-22686.30072097348
 10
-6818.894200629303
 20
-22686.2291267352
 10
-6819.218571967194
 20
-22686.17016677426
 10
-6819.375340766021
 20
-22686.16772536801
  0
LINE
  5
EB
330
2
100
AcDbEntity
  8
Access .1
  6
ByBlock
100
AcDbLine
 10
-6818.375340766022
 20
-22705.81774978208
 30
0.0
 11
-6818.375340766022
 21
-22687.16772536802
 31
0.0
  0
LWPOLYLINE
  5
EC
330
2
100
AcDbEntity
  8
Access .2
  6
ByBlock
100
AcDbPolyline
 90
       10
 70
     0
 43
0.0
 10
-6816.022374457428
 20
-22682.95062331723
 10
-6816.090825385161
 20
-22683.58825759458
 10
-6816.293309516021
 20
-22684.19677810239
 10
-6816.620641058991
 20
-22684.74829177427
 10
-6817.057713812896
 20
-22685.21777419614
 10
-6817.58450824649
 20
-22685.5836189227
 10
-6818.177037543366
 20
-22685.82910232114
 10
-6818.807286566803
 20
-22685.94287185239
 10
-6819.470952338287
 20
-22685.95092849301
 10
-6821.511449164458
 20
-22685.95153884457
  0
LWPOLYLINE
  5
ED
330
2
100
AcDbEntity
  8
Access .2
  6
ByBlock
100
AcDbPolyline
 90
        3
 70
     0
 43
0.0
 10
-6781.419621771881
 20
-22798.84057693052
 10
-6768.579900092193
 20
-22798.13842849301
 10
-6738.492162055084
 20
-22796.42749099302
  0
LINE
  5
EE
330
2
100
AcDbEntity
  8
Access .2
  6
ByBlock
100
AcDbLine
 10
-6738.499699896881
 20
-22796.42944411802
 30
0.0
 11
-6738.498174017975
 21
-22796.4293220477
 31
0.0
  0
LINE
  5
EF
330
2
100
AcDbEntity
  8
Access .2
  6
ByBlock
100
AcDbLine
 10
-6738.498174017975
 20
-22796.4293220477
 30
0.0
 11
-6738.492162055084
 21
-22796.42749099302
 31
0.0
  0
LINE
  5
F0
330
2
100
AcDbEntity
  8
Access .1
  6
ByBlock
100
AcDbLine
 10
-6776.848698920318
 20
-22678.94671706723
 30
0.0
 11
-6796.848698920318
 21
-22678.94671706723
 31
0.0
  0
ARC
  5
F1
330
2
100
AcDbEntity
  8
Access .1
  6
ByBlock
100
AcDbCircle
 10
-6776.848698920318
 20
-22673.94671706723
 30
0.0
 40
5.0
100
AcDbArc
 50
270.0000006832169
 51
0.0
  0
ARC
  5
F2
330
2
100
AcDbEntity
  8
Access .1
  6
ByBlock
100
AcDbCircle
 10
-6809.925359076569
 20
-22546.07568435239
 30
0.0
 40
25.5
100
AcDbArc
 50
256.1685638033455
 51
28.64789063011239
  0
ARC
  5
F3
330
2
100
AcDbEntity
  8
Access .1
  6
ByBlock
100
AcDbCircle
 10
-6809.925359076569
 20
-22546.07568435239
 30
0.0
 40
25.5
100
AcDbArc
 50
28.64789063011239
 51
161.7312580647695
  0
ARC
  5
F4
330
2
100
AcDbEntity
  8
Access .2
  6
ByBlock
100
AcDbCircle
 10
-6895.859196967193
 20
-22548.67614821958
 30
0.0
 40
55.00863647460938
100
AcDbArc
 50
12.2375363457135
 51
23.30269038072056
  0
LINE
  5
F5
330
2
100
AcDbEntity
  8
Access .2
  6
ByBlock
100
AcDbLine
 10
-6866.299321478912
 20
-22496.87860183286
 30
0.0
 11
-6866.791234320709
 21
-22496.36871413755
 31
0.0
  0
ARC
  5
F6
330
2
100
AcDbEntity
  8
Access .2
  6
ByBlock
100
AcDbCircle
 10
-6941.80457050235
 20
-22567.99914626645
 30
0.0
 40
103.7676391601562
100
AcDbArc
 50
41.56741324006087
 51
43.55966877780159
  0
ARC
  5
F7
330
2
100
AcDbEntity
  8
Access .2
  6
ByBlock
100
AcDbCircle
 10
-6972.1712697211
 20
-22598.91772536801
 30
0.0
 40
147.0522308349609
100
AcDbArc
 50
45.59501434398198
 51
50.18380266232353
  0
ARC
  5
F8
330
2
100
AcDbEntity
  8
Access .2
  6
ByBlock
100
AcDbCircle
 10
-6961.239873236725
 20
-22585.92456130551
 30
0.0
 40
130.0720825195312
100
AcDbArc
 50
50.21419996813031
 51
52.42224453785715
  0
LINE
  5
F9
330
2
100
AcDbEntity
  8
Access .2
  6
ByBlock
100
AcDbLine
 10
-6866.790959662506
 20
-22496.36895827817
 30
0.0
 11
-6866.628484076568
 21
-22496.5117805438
 31
0.0
  0
ARC
  5
FA
330
2
100
AcDbEntity
  8
Access .2
  6
ByBlock
100
AcDbCircle
 10
-6953.277928656646
 20
-22578.93005446958
 30
0.0
 40
119.6146850585937
100
AcDbArc
 50
43.56673920215654
 51
45.36157104475661
  0
LWPOLYLINE
  5
FB
330
2
100
AcDbEntity
  8
Access .2
  6
ByBlock
100
AcDbPolyline
 90
        6
 70
     0
 43
0.0
 10
-6847.558903998444
 20
-22522.25293044614
 10
-6849.014348334382
 20
-22519.59051589536
 10
-6850.880009955474
 20
-22516.46313552426
 10
-6852.875035590241
 20
-22513.38800124692
 10
-6854.991765326568
 20
-22510.36566237973
 10
-6855.35501605899
 20
-22509.86767653989
  0
LWPOLYLINE
  5
FC
330
2
100
AcDbEntity
  8
Access .2
  6
ByBlock
100
AcDbPolyline
 90
        6
 70
     0
 43
0.0
 10
-6847.59525043399
 20
-22522.19567946958
 10
-6848.46683246524
 20
-22520.58343581723
 10
-6849.372441596099
 20
-22518.99243239926
 10
-6851.275060004303
 20
-22515.86633376645
 10
-6853.287999457427
 20
-22512.80871657895
 10
-6855.402745551178
 20
-22509.81762771176
  0
ARC
  5
FD
330
2
100
AcDbEntity
  8
Access .2
  6
ByBlock
100
AcDbCircle
 10
-6908.512791937896
 20
-22554.18890456723
 30
0.0
 40
68.81294250488281
100
AcDbArc
 50
23.34661316501044
 51
27.65169428540252
  0
ARC
  5
FE
330
2
100
AcDbEntity
  8
Access .2
  6
ByBlock
100
AcDbCircle
 10
-6899.842931098053
 20
-22550.32690505551
 30
0.0
 40
59.32105255126953
100
AcDbArc
 50
23.24491292918037
 51
25.32188019242179
  0
ARC
  5
FF
330
2
100
AcDbEntity
  8
Access .2
  6
ByBlock
100
AcDbCircle
 10
-6910.195103949615
 20
-22555.13226394223
 30
0.0
 40
70.73577880859375
100
AcDbArc
 50
25.25335407933785
 51
27.75089060445464
  0
ARC
  5
100
330
2
100
AcDbEntity
  8
Access .2
  6
ByBlock
100
AcDbCircle
 10
-6956.630193060944
 20
-22584.28454665708
 30
0.0
 40
125.6765518188476
100
AcDbArc
 50
36.30839862198042
 51
38.80074032211476
  0
ARC
  5
101
330
2
100
AcDbEntity
  8
Access .2
  6
ByBlock
100
AcDbCircle
 10
-6952.462590521881
 20
-22580.81176833676
 30
0.0
 40
120.2538757324218
100
AcDbArc
 50
36.18350185328163
 51
38.75612457722945
  0
ARC
  5
102
330
2
100
AcDbEntity
  8
Access .2
  6
ByBlock
100
AcDbCircle
 10
-6957.909367865631
 20
-22585.21923903989
 30
0.0
 40
127.2607192993164
100
AcDbArc
 50
38.76841400501746
 51
42.32454074537056
  0
LINE
  5
103
330
2
100
AcDbEntity
  8
Access .2
  6
ByBlock
100
AcDbLine
 10
-6865.859624213287
 20
-22497.33868484067
 30
0.0
 11
-6866.299321478912
 21
-22496.87860183286
 31
0.0
  0
ARC
  5
104
330
2
100
AcDbEntity
  8
Access .2
  6
ByBlock
100
AcDbCircle
 10
-6963.415471381257
 20
-22590.16449050473
 30
0.0
 40
134.6617126464844
100
AcDbArc
 50
42.30277851356264
 51
43.57678323282324
  0
LINE
  5
105
330
2
100
AcDbEntity
  8
Access .1
  6
ByBlock
100
AcDbLine
 10
-6837.43900043399
 20
-22563.3717048602
 30
0.0
 11
-6837.43900043399
 21
-22547.07592849301
 31
0.0
  0
LINE
  5
106
330
2
100
AcDbEntity
  8
Access .1
  6
ByBlock
100
AcDbLine
 10
-6818.375340766022
 20
-22565.72570876645
 30
0.0
 11
-6818.375340766022
 21
-22547.07568435239
 31
0.0
  0
ARC
  5
107
330
2
100
AcDbEntity
  8
Access .2
  6
ByBlock
100
AcDbCircle
 10
-8425.633000678132
 20
-22550.47039870786
 30
0.0
 40
1584.921997070312
100
AcDbArc
 50
359.7618884597381
 51
359.9043174985932
  0
LINE
  5
108
330
2
100
AcDbEntity
  8
Access .2
  6
ByBlock
100
AcDbLine
 10
-6834.037541693756
 20
-22566.94049148129
 30
0.0
 11
-6821.511449164458
 21
-22566.94189528989
 31
0.0
  0
LINE
  5
109
330
2
100
AcDbEntity
  8
Access .1
  6
ByBlock
100
AcDbLine
 10
-6832.668034857817
 20
-22566.72570876645
 30
0.0
 11
-6819.375340766021
 21
-22566.72570876645
 31
0.0
  0
LINE
  5
10A
330
2
100
AcDbEntity
  8
Access .2
  6
ByBlock
100
AcDbLine
 10
-6834.037144965241
 20
-22566.94049148129
 30
0.0
 11
-6821.511784857818
 21
-22566.94189528989
 31
0.0
  0
LINE
  5
10B
330
2
100
AcDbEntity
  8
Access .2
  6
ByBlock
100
AcDbLine
 10
-6839.72351581485
 20
-22566.94067458676
 30
0.0
 11
-6834.037755316803
 21
-22566.94049148129
 31
0.0
  0
LINE
  5
10C
330
2
100
AcDbEntity
  8
Access .1
  6
ByBlock
100
AcDbLine
 10
-6836.465550726959
 20
-22566.72570876645
 30
0.0
 11
-6832.668034857817
 21
-22566.72570876645
 31
0.0
  0
LINE
  5
10D
330
2
100
AcDbEntity
  8
Access .2
  6
ByBlock
100
AcDbLine
 10
-6839.72351581485
 20
-22566.94067458676
 30
0.0
 11
-6834.037358588287
 21
-22566.94049148129
 31
0.0
  0
LINE
  5
10E
330
2
100
AcDbEntity
  8
Access .2
  6
ByBlock
100
AcDbLine
 10
-6839.752385443756
 20
-22566.94024734067
 30
0.0
 11
-6839.72351581485
 21
-22566.94067458676
 31
0.0
  0
LINE
  5
10F
330
2
100
AcDbEntity
  8
Access .2
  6
ByBlock
100
AcDbLine
 10
-6839.795995062897
 20
-22566.93805007504
 30
0.0
 11
-6839.72351581485
 21
-22566.94067458676
 31
0.0
  0
ARC
  5
110
330
2
100
AcDbEntity
  8
Access .2
  6
ByBlock
100
AcDbCircle
 10
-6839.723088568756
 20
-22565.94061355161
 30
0.0
 40
1.000075459480285
100
AcDbArc
 50
179.9526171572239
 51
265.7289193083482
  0
ARC
  5
111
330
2
100
AcDbEntity
  8
Access .2
  6
ByBlock
100
AcDbCircle
 10
-5883.328557318755
 20
-22559.42352370786
 30
0.0
 40
957.3986206054687
100
AcDbArc
 50
179.8583332235039
 51
180.1744890201138
  0
ARC
  5
112
330
2
100
AcDbEntity
  8
Access .2
  6
ByBlock
100
AcDbCircle
 10
-7703.230046576568
 20
-22563.90374831723
 30
0.0
 40
862.5088500976563
100
AcDbArc
 50
359.8647463452596
 51
0.1039388967611583
  0
LINE
  5
113
330
2
100
AcDbEntity
  8
Access .2
  6
ByBlock
100
AcDbLine
 10
-6840.723393744537
 20
-22565.9400642352
 30
0.0
 11
-6840.722173041412
 21
-22564.99517898129
 31
0.0
  0
ARC
  5
114
330
2
100
AcDbEntity
  8
Access .2
  6
ByBlock
100
AcDbCircle
 10
-6839.723088568756
 20
-22565.94061355161
 30
0.0
 40
1.000086426734924
100
AcDbArc
 50
179.9538192696679
 51
265.7293564927642
  0
LINE
  5
115
330
2
100
AcDbEntity
  8
Access .2
  6
ByBlock
100
AcDbLine
 10
-6840.722203558991
 20
-22564.99517898129
 30
0.0
 11
-6840.722142523834
 21
-22564.80481032895
 31
0.0
  0
LINE
  5
116
330
2
100
AcDbEntity
  8
Access .2
  6
ByBlock
100
AcDbLine
 10
-6840.721593207428
 20
-22564.80481032895
 30
0.0
 11
-6840.722356146881
 21
-22564.45092849301
 31
0.0
  0
ARC
  5
117
330
2
100
AcDbEntity
  8
Access .2
  6
ByBlock
100
AcDbCircle
 10
-5883.404362982817
 20
-22559.44757155942
 30
0.0
 40
957.32275390625
100
AcDbArc
 50
179.8569262139481
 51
180.1730546898412
  0
ARC
  5
118
330
2
100
AcDbEntity
  8
Access .2
  6
ByBlock
100
AcDbCircle
 10
-7373.180547064849
 20
-22563.6929939227
 30
0.0
 40
532.4594116210938
100
AcDbArc
 50
359.9184410037425
 51
0.1456802058117309
  0
LINE
  5
119
330
2
100
AcDbEntity
  8
Access .1
  6
ByBlock
100
AcDbLine
 10
-6837.43900043399
 20
-22565.72570876645
 30
0.0
 11
-6837.43900043399
 21
-22563.39257888364
 31
0.0
  0
LWPOLYLINE
  5
11A
330
2
100
AcDbEntity
  8
Access .1
  6
ByBlock
100
AcDbPolyline
 90
        7
 70
     0
 43
0.0
 10
-6837.43900043399
 20
-22565.72570876645
 10
-6837.417821234772
 20
-22566.06091384458
 10
-6837.342442816804
 20
-22566.29534987973
 10
-6837.204472846099
 20
-22566.49090652036
 10
-6837.010075873443
 20
-22566.6318977313
 10
-6836.785802191802
 20
-22566.70526198911
 10
-6836.465550726959
 20
-22566.72570876645
  0
LINE
  5
11B
330
2
100
AcDbEntity
  8
Access .2
  6
ByBlock
100
AcDbLine
 10
-6816.022404975005
 20
-22626.44671706723
 30
0.0
 11
-6816.022404975005
 21
-22569.9404914813
 31
0.0
  0
LWPOLYLINE
  5
11C
330
2
100
AcDbEntity
  8
Access .2
  6
ByBlock
100
AcDbPolyline
 90
       10
 70
     0
 43
0.0
 10
-6816.022374457428
 20
-22569.94281081723
 10
-6816.090825385161
 20
-22569.30517653989
 10
-6816.293309516021
 20
-22568.69665603208
 10
-6816.620641058991
 20
-22568.1451423602
 10
-6817.057713812896
 20
-22567.67565993833
 10
-6817.58450824649
 20
-22567.30981521176
 10
-6818.177037543366
 20
-22567.06433181333
 10
-6818.807286566803
 20
-22566.95056228207
 10
-6819.470952338287
 20
-22566.94250564145
 10
-6821.511449164458
 20
-22566.94189528989
  0
LWPOLYLINE
  5
11D
330
2
100
AcDbEntity
  8
Access .1
  6
ByBlock
100
AcDbPolyline
 90
        8
 70
     0
 43
0.0
 10
-6818.375340766022
 20
-22565.72570876645
 10
-6818.390843695709
 20
-22566.02288894223
 10
-6818.423283881256
 20
-22566.16680984067
 10
-6818.515752142975
 20
-22566.36596755551
 10
-6818.746709174225
 20
-22566.59271316098
 10
-6818.894200629303
 20
-22566.66430739926
 10
-6819.218571967194
 20
-22566.7232673602
 10
-6819.375340766021
 20
-22566.72570876645
  0
LINE
  5
11E
330
2
100
AcDbEntity
  8
Access .1
  6
ByBlock
100
AcDbLine
 10
-6821.801762885162
 20
-22546.07568435239
 30
0.0
 11
-6836.475346869537
 21
-22546.07568435239
 31
0.0
  0
LINE
  5
11F
330
2
100
AcDbEntity
  8
Access .1
  6
ByBlock
100
AcDbLine
 10
-6832.668034857817
 20
-22546.07568435239
 30
0.0
 11
-6819.375340766021
 21
-22546.07568435239
 31
0.0
  0
ARC
  5
120
330
2
100
AcDbEntity
  8
Access .1
  6
ByBlock
100
AcDbCircle
 10
-6809.925359076569
 20
-22546.07568435239
 30
0.0
 40
25.5
100
AcDbArc
 50
161.7816913684336
 51
163.6716862692829
  0
LINE
  5
121
330
2
100
AcDbEntity
  8
Access .1
  6
ByBlock
100
AcDbLine
 10
-6836.465550726959
 20
-22546.07568435239
 30
0.0
 11
-6832.668034857817
 21
-22546.07568435239
 31
0.0
  0
ARC
  5
122
330
2
100
AcDbEntity
  8
Access .2
  6
ByBlock
100
AcDbCircle
 10
-7078.707829779694
 20
-22552.6992805438
 30
0.0
 40
237.9954071044922
100
AcDbArc
 50
359.8993881193645
 51
0.5684186404419341
  0
LWPOLYLINE
  5
123
330
2
100
AcDbEntity
  8
Access .2
  6
ByBlock
100
AcDbPolyline
 90
        5
 70
     0
 43
0.0
 10
-6840.853307074616
 20
-22546.21655349301
 10
-6841.080418891022
 20
-22543.43872146177
 10
-6841.422368353912
 20
-22540.71203689145
 10
-6841.705815619537
 20
-22538.96600417661
 10
-6842.040837592193
 20
-22537.24145583676
  0
ARC
  5
124
330
2
100
AcDbEntity
  8
Access .2
  6
ByBlock
100
AcDbCircle
 10
-6926.635167426178
 20
-22550.93243484067
 30
0.0
 40
85.91203308105468
100
AcDbArc
 50
0.3963209831132179
 51
3.14669171533981
  0
LINE
  5
125
330
2
100
AcDbEntity
  8
Access .2
  6
ByBlock
100
AcDbLine
 10
-6842.040837592193
 20
-22537.24145583676
 30
0.0
 11
-6842.088963812897
 21
-22537.01562575864
 31
0.0
  0
ARC
  5
126
330
2
100
AcDbEntity
  8
Access .1
  6
ByBlock
100
AcDbCircle
 10
-6809.925359076569
 20
-22546.07568435239
 30
0.0
 40
25.5
100
AcDbArc
 50
163.7226795199927
 51
179.9998547446714
  0
LINE
  5
127
330
2
100
AcDbEntity
  8
Access .1
  6
ByBlock
100
AcDbLine
 10
-6834.403203314849
 20
-22538.92840652036
 30
0.0
 11
-6834.396855658599
 21
-22538.90661696958
 31
0.0
  0
LWPOLYLINE
  5
128
330
2
100
AcDbEntity
  8
Access .1
  6
ByBlock
100
AcDbPolyline
 90
        8
 70
     0
 43
0.0
 10
-6837.43900043399
 20
-22547.07592849301
 10
-6837.428563422271
 20
-22546.73620681333
 10
-6837.402653998444
 20
-22546.57659987973
 10
-6837.316960639069
 20
-22546.36572341489
 10
-6837.106297797271
 20
-22546.17273025083
 10
-6836.961583441802
 20
-22546.11718825864
 10
-6836.636052435943
 20
-22546.07739333676
 10
-6836.470586127349
 20
-22546.07592849302
  0
LINE
  5
129
330
2
100
AcDbEntity
  8
Access .1
  6
ByBlock
100
AcDbLine
 10
-6836.465550726959
 20
-22546.07568435239
 30
0.0
 11
-6836.475346869537
 21
-22546.07568435239
 31
0.0
  0
LINE
  5
12A
330
2
100
AcDbEntity
  8
Access .1
  6
ByBlock
100
AcDbLine
 10
-6834.147008246491
 20
-22538.10321120786
 30
0.0
 11
-6834.140050238677
 21
-22538.08209304379
 31
0.0
  0
LWPOLYLINE
  5
12B
330
2
100
AcDbEntity
  8
Access .1
  6
ByBlock
100
AcDbPolyline
 90
        8
 70
     0
 43
0.0
 10
-6818.375340766022
 20
-22547.07568435239
 10
-6818.390843695709
 20
-22546.77856521177
 10
-6818.423283881256
 20
-22546.63464431333
 10
-6818.515752142975
 20
-22546.43548659848
 10
-6818.746709174225
 20
-22546.20874099301
 10
-6818.894200629303
 20
-22546.13714675473
 10
-6819.218571967194
 20
-22546.07812575864
 10
-6819.375340766021
 20
-22546.07568435239
  0
LINE
  5
12C
330
2
100
AcDbEntity
  8
Access .1
  6
ByBlock
100
AcDbLine
 10
-6776.848698920318
 20
-22573.94671706723
 30
0.0
 11
-6796.848698920318
 21
-22573.94671706723
 31
0.0
  0
LINE
  5
12D
330
2
100
AcDbEntity
  8
Access .1
  6
ByBlock
100
AcDbLine
 10
-6771.848698920319
 20
-22626.44671706723
 30
0.0
 11
-6771.848698920319
 21
-22578.94671706723
 31
0.0
  0
ARC
  5
12E
330
2
100
AcDbEntity
  8
Access .1
  6
ByBlock
100
AcDbCircle
 10
-6776.848698920318
 20
-22578.94671706723
 30
0.0
 40
5.0
100
AcDbArc
 50
0.0
 51
90.00000250446868
  0
ARC
  5
12F
330
2
100
AcDbEntity
  8
Access .2
  6
ByBlock
100
AcDbCircle
 10
-7207.749394721099
 20
-30364.46374587582
 30
0.0
 40
7921.891601562499
100
AcDbArc
 50
86.74164035015673
 51
86.91503825353555
  0
ARC
  5
130
330
2
100
AcDbEntity
  8
Access .2
  6
ByBlock
100
AcDbCircle
 10
-8203.873845404695
 20
-47656.48034743832
 30
0.0
 40
25242.57421875
100
AcDbArc
 50
86.67202011051045
 51
86.71524157595634
  0
ARC
  5
131
330
2
100
AcDbEntity
  8
Access .2
  6
ByBlock
100
AcDbCircle
 10
-8073.812077826568
 20
-45657.20495681332
 30
0.0
 40
23239.134765625
100
AcDbArc
 50
86.70598669113964
 51
86.75293058612117
  0
ARC
  5
132
330
2
100
AcDbEntity
  8
Access .2
  6
ByBlock
100
AcDbCircle
 10
-8098.451604193757
 20
-46035.87683181332
 30
0.0
 40
23618.59765625
100
AcDbArc
 50
86.69908130986179
 51
86.74521928226367
  0
LINE
  5
133
330
2
100
AcDbEntity
  8
Access .2
  6
ByBlock
100
AcDbLine
 10
-6738.499699896881
 20
-22456.46399001645
 30
0.0
 11
-6738.498174017975
 21
-22456.46411208676
 31
0.0
  0
LINE
  5
134
330
2
100
AcDbEntity
  8
Access .2
  6
ByBlock
100
AcDbLine
 10
-6738.498174017975
 20
-22456.46411208676
 30
0.0
 11
-6738.492162055084
 21
-22456.46594314145
 31
0.0
  0
LWPOLYLINE
  5
135
330
2
100
AcDbEntity
  8
Access .2
  6
ByBlock
100
AcDbPolyline
 90
        5
 70
     0
 43
0.0
 10
-6441.848698920319
 20
-22788.8301399188
 10
-6485.539159125396
 20
-22788.91833571958
 10
-6516.650517767975
 20
-22789.06738357114
 10
-6541.502751654693
 20
-22789.27984695005
 10
-6549.471013373443
 20
-22789.37060622739
  0
LWPOLYLINE
  5
136
330
2
100
AcDbEntity
  8
Access .2
  6
ByBlock
100
AcDbPolyline
 90
        5
 70
     0
 43
0.0
 10
-6441.848698920319
 20
-22464.06329421567
 10
-6485.539159125396
 20
-22463.97509841489
 10
-6516.650517767975
 20
-22463.82605056333
 10
-6541.502751654693
 20
-22463.61358718442
 10
-6549.471013373443
 20
-22463.52282790708
  0
ARC
  5
137
330
2
100
AcDbEntity
  8
Access .2
  6
ByBlock
100
AcDbCircle
 10
-6498.013097113677
 20
-27007.54821853208
 30
0.0
 40
4218.491210937499
100
AcDbArc
 50
90.69845085045807
 51
90.79393688941358
  0
ARC
  5
138
330
2
100
AcDbEntity
  8
Access .2
  6
ByBlock
100
AcDbCircle
 10
-6498.013097113677
 20
-18245.34509353208
 30
0.0
 40
4218.491210937499
100
AcDbArc
 50
269.2060631105865
 51
269.3015628089029
  0
LINE
  5
139
330
2
100
AcDbEntity
  8
Access .2
  6
ByBlock
100
AcDbLine
 10
-6441.848698920319
 20
-22782.30712966489
 30
0.0
 11
-6441.848698920319
 21
-22626.44671706723
 31
0.0
  0
ARC
  5
13A
330
2
100
AcDbEntity
  8
Access .2
  6
ByBlock
100
AcDbCircle
 10
-5384.811955756255
 20
-22781.73352126645
 30
0.0
 40
1057.037109375
100
AcDbArc
 50
180.0310860125432
 51
180.2876415711241
  0
LINE
  5
13B
330
2
100
AcDbEntity
  8
Access .2
  6
ByBlock
100
AcDbLine
 10
-6441.836003607818
 20
-22787.04003982114
 30
0.0
 11
-6441.791142767974
 21
-22780.29931716489
 31
0.0
  0
LINE
  5
13C
330
2
100
AcDbEntity
  8
Access .2
  6
ByBlock
100
AcDbLine
 10
-6441.848698920319
 20
-22788.77130202817
 30
0.0
 11
-6441.849126166411
 21
-22788.58294753598
 31
0.0
  0
LINE
  5
13D
330
2
100
AcDbEntity
  8
Access .2
  6
ByBlock
100
AcDbLine
 10
-6441.849126166411
 20
-22788.58294753598
 30
0.0
 11
-6441.851506537506
 21
-22787.50878982114
 31
0.0
  0
LINE
  5
13E
330
2
100
AcDbEntity
  8
Access .2
  6
ByBlock
100
AcDbLine
 10
-6441.848698920319
 20
-22788.77130202817
 30
0.0
 11
-6441.848698920319
 21
-22787.03961257504
 31
0.0
  0
LINE
  5
13F
330
2
100
AcDbEntity
  8
Access .2
  6
ByBlock
100
AcDbLine
 10
-6441.848698920319
 20
-22788.8301399188
 30
0.0
 11
-6441.852238959381
 21
-22787.04003982114
 31
0.0
  0
LINE
  5
140
330
2
100
AcDbEntity
  8
Access .2
  6
ByBlock
100
AcDbLine
 10
-6441.852238959381
 20
-22787.04003982114
 30
0.0
 11
-6441.836003607818
 21
-22787.04003982114
 31
0.0
  0
LINE
  5
141
330
2
100
AcDbEntity
  8
Access .2
  6
ByBlock
100
AcDbLine
 10
-6441.791142767974
 20
-22780.29931716489
 30
0.0
 11
-6441.771184271882
 21
-22777.51269607114
 31
0.0
  0
LINE
  5
142
330
2
100
AcDbEntity
  8
Access .2
  6
ByBlock
100
AcDbLine
 10
-6441.848698920319
 20
-22626.44671706723
 30
0.0
 11
-6441.848698920319
 21
-22470.58630446958
 31
0.0
  0
LINE
  5
143
330
2
100
AcDbEntity
  8
Access .2
  6
ByBlock
100
AcDbLine
 10
-6441.849126166411
 20
-22464.31048659848
 30
0.0
 11
-6441.848698920319
 21
-22464.12213210629
 31
0.0
  0
LINE
  5
144
330
2
100
AcDbEntity
  8
Access .2
  6
ByBlock
100
AcDbLine
 10
-6441.851506537506
 20
-22465.38464431333
 30
0.0
 11
-6441.849126166411
 21
-22464.31048659848
 31
0.0
  0
LINE
  5
145
330
2
100
AcDbEntity
  8
Access .2
  6
ByBlock
100
AcDbLine
 10
-6441.848698920319
 20
-22465.85382155942
 30
0.0
 11
-6441.848698920319
 21
-22464.12213210629
 31
0.0
  0
LINE
  5
146
330
2
100
AcDbEntity
  8
Access .2
  6
ByBlock
100
AcDbLine
 10
-6441.852238959381
 20
-22465.85339431333
 30
0.0
 11
-6441.848698920319
 21
-22464.06329421567
 31
0.0
  0
ARC
  5
147
330
2
100
AcDbEntity
  8
Access .2
  6
ByBlock
100
AcDbCircle
 10
-5384.811955756255
 20
-22471.15991286801
 30
0.0
 40
1057.037109375
100
AcDbArc
 50
179.7123584288759
 51
179.9689139874568
  0
LINE
  5
148
330
2
100
AcDbEntity
  8
Access .2
  6
ByBlock
100
AcDbLine
 10
-6441.852238959381
 20
-22465.85339431333
 30
0.0
 11
-6441.836003607818
 21
-22465.85339431333
 31
0.0
  0
LINE
  5
149
330
2
100
AcDbEntity
  8
Access .1
  6
HIDDEN
100
AcDbLine
 10
-6357.564932565817
 20
-22435.82402386821
 30
0.0
 11
-6370.848698920315
 21
-22435.82402386821
 31
0.0
  0
LINE
  5
14B
330
2
100
AcDbEntity
  8
Access .1
  6
HIDDEN
100
AcDbLine
 10
-6354.848698920315
 20
-22432.8240238682
 30
0.0
 11
-6376.848698920316
 21
-22432.8240238682
 31
0.0
  0
LINE
  5
14C
330
2
100
AcDbEntity
  8
Access .1
  6
HIDDEN
100
AcDbLine
 10
-6370.848698920316
 20
-22568.09545628009
 30
0.0
 11
-6312.848698920315
 21
-22568.09545628009
 31
0.0
  0
LINE
  5
14D
330
2
100
AcDbEntity
  8
Access .1
  6
HIDDEN
100
AcDbLine
 10
-6370.848698920316
 20
-22565.82402386821
 30
0.0
 11
-6312.848698920315
 21
-22565.82402386821
 31
0.0
  0
LINE
  5
14E
330
2
100
AcDbEntity
  8
Access .1
  6
HIDDEN
100
AcDbLine
 10
-6376.848698920316
 20
-22420.44671706723
 30
0.0
 11
-6306.848698920315
 21
-22420.44671706723
 31
0.0
  0
LINE
  5
14F
330
2
100
AcDbEntity
  8
Access .1
  6
HIDDEN
100
AcDbLine
 10
-6376.848698920316
 20
-22368.44671706724
 30
0.0
 11
-6306.848698920315
 21
-22368.44671706724
 31
0.0
  0
LINE
  5
150
330
2
100
AcDbEntity
  8
Access .1
  6
HIDDEN
100
AcDbLine
 10
-6376.848698920316
 20
-22393.44671706724
 30
0.0
 11
-6306.848698920315
 21
-22393.44671706724
 31
0.0
  0
LINE
  5
151
330
2
100
AcDbEntity
  8
Access .1
  6
HIDDEN
100
AcDbLine
 10
-6370.848698920315
 20
-22395.44671706723
 30
0.0
 11
-6312.848698920316
 21
-22395.44671706723
 31
0.0
  0
LINE
  5
152
330
2
100
AcDbEntity
  8
Access .1
  6
HIDDEN
100
AcDbLine
 10
-6357.564932565817
 20
-22817.06941026627
 30
0.0
 11
-6370.848698920315
 21
-22817.06941026627
 31
0.0
  0
LINE
  5
153
330
2
100
AcDbEntity
  8
Access .1
  6
HIDDEN
100
AcDbLine
 10
-6351.848698920316
 20
-22820.06941026626
 30
0.0
 11
-6376.848698920316
 21
-22820.06941026626
 31
0.0
  0
LINE
  5
154
330
2
100
AcDbEntity
  8
Access .1
  6
HIDDEN
100
AcDbLine
 10
-6376.848698920316
 20
-22859.44671706724
 30
0.0
 11
-6306.848698920315
 21
-22859.44671706724
 31
0.0
  0
LINE
  5
155
330
2
100
AcDbEntity
  8
Access .1
  6
HIDDEN
100
AcDbLine
 10
-6376.848698920316
 20
-22884.44671706724
 30
0.0
 11
-6306.848698920315
 21
-22884.44671706724
 31
0.0
  0
LINE
  5
156
330
2
100
AcDbEntity
  8
Access .1
  6
HIDDEN
100
AcDbLine
 10
-6376.848698920316
 20
-22832.44671706724
 30
0.0
 11
-6306.848698920315
 21
-22832.44671706724
 31
0.0
  0
LINE
  5
157
330
2
100
AcDbEntity
  8
Access .1
  6
HIDDEN
100
AcDbLine
 10
-6370.848698920315
 20
-22857.44671706724
 30
0.0
 11
-6312.848698920316
 21
-22857.44671706724
 31
0.0
  0
LINE
  5
158
330
2
100
AcDbEntity
  8
Access .1
  6
HIDDEN
100
AcDbLine
 10
-6370.848698920316
 20
-22684.79797785438
 30
0.0
 11
-6312.848698920315
 21
-22684.79797785438
 31
0.0
  0
LINE
  5
159
330
2
100
AcDbEntity
  8
Access .1
  6
HIDDEN
100
AcDbLine
 10
-6370.848698920316
 20
-22687.06941026626
 30
0.0
 11
-6312.848698920315
 21
-22687.06941026626
 31
0.0
  0
LINE
  5
15A
330
2
100
AcDbEntity
  8
Access .1
  6
ByBlock
100
AcDbLine
 10
-6471.848698920315
 20
-22701.22983780076
 30
0.0
 11
-6471.848698920315
 21
-22641.22983780076
 31
0.0
  0
LINE
  5
15B
330
2
100
AcDbEntity
  8
Access .1
  6
HIDDEN
100
AcDbLine
 10
-6376.848698920316
 20
-22626.44671706724
 30
0.0
 11
-6376.848698920316
 21
-22693.06941026627
 31
0.0
  0
LINE
  5
15C
330
2
100
AcDbEntity
  8
Access .2
  6
ByBlock
100
AcDbLine
 10
-6441.848698920319
 20
-22761.6868160203
 30
0.0
 11
-6441.848698920319
 21
-22626.44671706723
 31
0.0
  0
LINE
  5
15D
330
2
100
AcDbEntity
  8
Access .2
  6
ByBlock
100
AcDbLine
 10
-6441.848698920317
 20
-22626.44671706723
 30
0.0
 11
-6441.848698920317
 21
-22763.85524376508
 31
0.0
  0
LINE
  5
15E
330
2
100
AcDbEntity
  8
Access .2
  6
ByBlock
100
AcDbLine
 10
-6446.848698920314
 20
-22701.22983780076
 30
0.0
 11
-6446.848698920314
 21
-22641.22983780076
 31
0.0
  0
LINE
  5
15F
330
2
100
AcDbEntity
  8
Access .2
  6
ByBlock
100
AcDbLine
 10
-6446.848698920314
 20
-22788.94671706724
 30
0.0
 11
-6446.848698920314
 21
-22463.94671706724
 31
0.0
  0
LINE
  5
160
330
2
100
AcDbEntity
  8
Access .2
  6
ByBlock
100
AcDbLine
 10
-6441.848698920314
 20
-22463.94671706724
 30
0.0
 11
-6441.848698920314
 21
-22788.94671706724
 31
0.0
  0
LINE
  5
161
330
2
100
AcDbEntity
  8
Access .1
  6
HIDDEN
100
AcDbLine
 10
-6376.848698920317
 20
-22693.06941026627
 30
0.0
 11
-6376.848698920316
 21
-22811.06941026627
 31
0.0
  0
LINE
  5
162
330
2
100
AcDbEntity
  8
Access .1
  6
HIDDEN
100
AcDbLine
 10
-6376.848698920316
 20
-22859.44671706724
 30
0.0
 11
-6376.848698920316
 21
-22884.44671706724
 31
0.0
  0
LINE
  5
163
330
2
100
AcDbEntity
  8
Access .1
  6
HIDDEN
100
AcDbLine
 10
-6376.848698920316
 20
-22811.06941026627
 30
0.0
 11
-6376.848698920316
 21
-22851.44671706724
 31
0.0
  0
ARC
  5
164
330
2
100
AcDbEntity
  8
Access .1
  6
HIDDEN
100
AcDbCircle
 10
-6370.848698920315
 20
-22851.44671706724
 30
0.0
 40
6.0
100
AcDbArc
 50
180.0
 51
270.0
  0
ARC
  5
165
330
2
100
AcDbEntity
  8
Access .1
  6
HIDDEN
100
AcDbCircle
 10
-6370.848698920315
 20
-22811.06941026627
 30
0.0
 40
6.0
100
AcDbArc
 50
180.0
 51
270.0
  0
LINE
  5
166
330
2
100
AcDbEntity
  8
Access .1
  6
ByBlock
100
AcDbLine
 10
-6471.848698920315
 20
-22701.22983780076
 30
0.0
 11
-6446.848698920314
 21
-22701.22983780076
 31
0.0
  0
LINE
  5
167
330
2
100
AcDbEntity
  8
Access .2
  6
ByBlock
100
AcDbLine
 10
-6441.848698920314
 20
-22785.60172840452
 30
0.0
 11
-6441.848698920314
 21
-22747.47813789243
 31
0.0
  0
LINE
  5
168
330
2
100
AcDbEntity
  8
Access .2
  6
ByBlock
100
AcDbLine
 10
-6441.848698920314
 20
-22788.94671706724
 30
0.0
 11
-6446.848698920314
 21
-22788.94671706724
 31
0.0
  0
LINE
  5
169
330
2
100
AcDbEntity
  8
Access .2
  6
ByBlock
100
AcDbLine
 10
-6441.848729437893
 20
-22780.26358108091
 30
0.0
 11
-6441.848698920314
 21
-22780.26706008482
 31
0.0
  0
LINE
  5
16A
330
2
100
AcDbEntity
  8
Access .2
  6
ByBlock
100
AcDbLine
 10
-6441.848729437893
 20
-22772.46725539732
 30
0.0
 11
-6441.848698920314
 21
-22772.47622756529
 31
0.0
  0
LINE
  5
16B
330
2
100
AcDbEntity
  8
Access .2
  6
ByBlock
100
AcDbLine
 10
-6441.848973578519
 20
-22739.49258498716
 30
0.0
 11
-6441.848698920314
 21
-22739.51580886411
 31
0.0
  0
LINE
  5
16C
330
2
100
AcDbEntity
  8
Access .2
  6
ByBlock
100
AcDbLine
 10
-6441.848698920314
 20
-22747.47813789243
 30
0.0
 11
-6441.849001477688
 21
-22747.45574864683
 31
0.0
  0
LINE
  5
16D
330
2
100
AcDbEntity
  8
Access .2
  6
ByBlock
100
AcDbLine
 10
-6441.848698920314
 20
-22672.3533027606
 30
0.0
 11
-6441.848698920314
 21
-22689.56472854184
 31
0.0
  0
ARC
  5
16E
330
2
100
AcDbEntity
  8
Access .1
  6
HIDDEN
100
AcDbCircle
 10
-6370.848698920316
 20
-22693.06941026627
 30
0.0
 40
6.0
100
AcDbArc
 50
90.0
 51
180.0
  0
ARC
  5
16F
330
2
100
AcDbEntity
  8
Access .1
  6
HIDDEN
100
AcDbCircle
 10
-6370.848698920316
 20
-22678.79797785438
 30
0.0
 40
6.0
100
AcDbArc
 50
180.0
 51
270.0
  0
LINE
  5
170
330
2
100
AcDbEntity
  8
Access .2
  6
ByBlock
100
AcDbLine
 10
-6441.848698920314
 20
-22505.41529624204
 30
0.0
 11
-6441.848698920314
 21
-22467.29170572995
 31
0.0
  0
LINE
  5
171
330
2
100
AcDbEntity
  8
Access .1
  6
HIDDEN
100
AcDbLine
 10
-6376.848698920317
 20
-22559.82402386821
 30
0.0
 11
-6376.848698920316
 21
-22441.82402386821
 31
0.0
  0
LINE
  5
172
330
2
100
AcDbEntity
  8
Access .2
  6
ByBlock
100
AcDbLine
 10
-6441.848698920319
 20
-22491.20661811417
 30
0.0
 11
-6441.848698920319
 21
-22626.44671706723
 31
0.0
  0
LINE
  5
173
330
2
100
AcDbEntity
  8
Access .2
  6
ByBlock
100
AcDbLine
 10
-6441.848698920317
 20
-22626.44671706723
 30
0.0
 11
-6441.848698920317
 21
-22489.03819036939
 31
0.0
  0
LINE
  5
174
330
2
100
AcDbEntity
  8
Access .1
  6
ByBlock
100
AcDbLine
 10
-6471.848698920315
 20
-22551.66359633371
 30
0.0
 11
-6446.848698920314
 21
-22551.66359633371
 31
0.0
  0
LINE
  5
175
330
2
100
AcDbEntity
  8
Access .1
  6
ByBlock
100
AcDbLine
 10
-6446.848698920314
 20
-22611.66359633371
 30
0.0
 11
-6471.848698920315
 21
-22611.66359633371
 31
0.0
  0
LINE
  5
176
330
2
100
AcDbEntity
  8
Access .1
  6
ByBlock
100
AcDbLine
 10
-6446.848698920314
 20
-22641.22983780076
 30
0.0
 11
-6471.848698920315
 21
-22641.22983780076
 31
0.0
  0
LINE
  5
177
330
2
100
AcDbEntity
  8
Access .1
  6
ByBlock
100
AcDbLine
 10
-6471.848698920315
 20
-22611.66359633371
 30
0.0
 11
-6471.848698920315
 21
-22551.66359633371
 31
0.0
  0
LINE
  5
178
330
2
100
AcDbEntity
  8
Access .2
  6
ByBlock
100
AcDbLine
 10
-6441.848698920314
 20
-22563.32870559263
 30
0.0
 11
-6441.848698920314
 21
-22580.54013137388
 31
0.0
  0
LINE
  5
179
330
2
100
AcDbEntity
  8
Access .2
  6
ByBlock
100
AcDbLine
 10
-6446.848698920314
 20
-22551.66359633371
 30
0.0
 11
-6446.848698920314
 21
-22611.66359633371
 31
0.0
  0
LINE
  5
17A
330
2
100
AcDbEntity
  8
Access .1
  6
HIDDEN
100
AcDbLine
 10
-6376.848698920316
 20
-22626.44671706724
 30
0.0
 11
-6376.848698920316
 21
-22559.82402386821
 31
0.0
  0
LINE
  5
17B
330
2
100
AcDbEntity
  8
Access .2
  6
ByBlock
100
AcDbLine
 10
-6441.849001477688
 20
-22505.43768548765
 30
0.0
 11
-6441.848698920314
 21
-22505.41529624204
 31
0.0
  0
LINE
  5
17C
330
2
100
AcDbEntity
  8
Access .2
  6
ByBlock
100
AcDbLine
 10
-6441.848698920314
 20
-22513.37762527036
 30
0.0
 11
-6441.848973578519
 21
-22513.40051345395
 31
0.0
  0
ARC
  5
17D
330
2
100
AcDbEntity
  8
Access .1
  6
HIDDEN
100
AcDbCircle
 10
-6370.848698920316
 20
-22559.82402386821
 30
0.0
 40
6.0
100
AcDbArc
 50
180.0
 51
270.0
  0
ARC
  5
17E
330
2
100
AcDbEntity
  8
Access .1
  6
HIDDEN
100
AcDbCircle
 10
-6370.848698920316
 20
-22574.09545628009
 30
0.0
 40
6.0
100
AcDbArc
 50
90.0
 51
180.0
  0
LINE
  5
17F
330
2
100
AcDbEntity
  8
Access .1
  6
HIDDEN
100
AcDbLine
 10
-6376.848698920316
 20
-22441.82402386821
 30
0.0
 11
-6376.848698920316
 21
-22401.44671706723
 31
0.0
  0
LINE
  5
180
330
2
100
AcDbEntity
  8
Access .2
  6
ByBlock
100
AcDbLine
 10
-6441.848698920314
 20
-22472.62637404966
 30
0.0
 11
-6441.848729437893
 21
-22472.62985305356
 31
0.0
  0
LINE
  5
181
330
2
100
AcDbEntity
  8
Access .2
  6
ByBlock
100
AcDbLine
 10
-6441.848698920314
 20
-22480.41720656919
 30
0.0
 11
-6441.848729437893
 21
-22480.42617873716
 31
0.0
  0
LINE
  5
182
330
2
100
AcDbEntity
  8
Access .2
  6
ByBlock
100
AcDbLine
 10
-6446.848698920314
 20
-22463.94671706724
 30
0.0
 11
-6441.848698920314
 21
-22463.94671706724
 31
0.0
  0
ARC
  5
183
330
2
100
AcDbEntity
  8
Access .1
  6
HIDDEN
100
AcDbCircle
 10
-6370.848698920315
 20
-22441.82402386821
 30
0.0
 40
6.0
100
AcDbArc
 50
90.0
 51
180.0
  0
ARC
  5
184
330
2
100
AcDbEntity
  8
Access .1
  6
HIDDEN
100
AcDbCircle
 10
-6370.848698920315
 20
-22401.44671706723
 30
0.0
 40
6.0
100
AcDbArc
 50
90.0
 51
180.0
  0
LINE
  5
185
330
2
100
AcDbEntity
  8
Access .1
  6
HIDDEN
100
AcDbLine
 10
-6376.848698920316
 20
-22393.44671706724
 30
0.0
 11
-6376.848698920316
 21
-22368.44671706724
 31
0.0
  0
LINE
  5
186
330
2
100
AcDbEntity
  8
Access .1
  6
HIDDEN
100
AcDbLine
 10
-6306.848698920315
 20
-22626.44671706724
 30
0.0
 11
-6306.848698920315
 21
-22693.06941026627
 31
0.0
  0
LINE
  5
187
330
2
100
AcDbEntity
  8
Access .1
  6
HIDDEN
100
AcDbLine
 10
-6306.848698920315
 20
-22693.06941026627
 30
0.0
 11
-6306.848698920315
 21
-22811.06941026627
 31
0.0
  0
LINE
  5
188
330
2
100
AcDbEntity
  8
Access .1
  6
HIDDEN
100
AcDbLine
 10
-6306.848698920315
 20
-22884.44671706724
 30
0.0
 11
-6306.848698920315
 21
-22859.44671706724
 31
0.0
  0
LINE
  5
189
330
2
100
AcDbEntity
  8
Access .1
  6
HIDDEN
100
AcDbLine
 10
-6331.848698920316
 20
-22820.06941026626
 30
0.0
 11
-6306.848698920315
 21
-22820.06941026626
 31
0.0
  0
ARC
  5
18A
330
2
100
AcDbEntity
  8
Access .1
  6
HIDDEN
100
AcDbCircle
 10
-6341.848698920315
 20
-22820.06941026626
 30
0.0
 40
13.0
100
AcDbArc
 50
0.0
 51
180.0
  0
ARC
  5
18B
330
2
100
AcDbEntity
  8
Access .1
  6
HIDDEN
100
AcDbCircle
 10
-6341.848698920315
 20
-22820.06941026626
 30
0.0
 40
16.00000000000042
100
AcDbArc
 50
10.80692287486099
 51
169.193077125139
  0
CIRCLE
  5
18C
330
2
100
AcDbEntity
  8
Access .1
  6
HIDDEN
100
AcDbCircle
 10
-6341.848698920315
 20
-22820.06941026626
 30
0.0
 40
10.0
  0
CIRCLE
  5
18D
330
2
100
AcDbEntity
  8
Access .1
  6
HIDDEN
100
AcDbCircle
 10
-6341.848698920315
 20
-22820.06941026626
 30
0.0
 40
8.0
  0
LINE
  5
18E
330
2
100
AcDbEntity
  8
Access .1
  6
HIDDEN
100
AcDbLine
 10
-6306.848698920315
 20
-22811.06941026627
 30
0.0
 11
-6306.848698920315
 21
-22851.44671706724
 31
0.0
  0
ARC
  5
18F
330
2
100
AcDbEntity
  8
Access .1
  6
HIDDEN
100
AcDbCircle
 10
-6312.848698920316
 20
-22851.44671706724
 30
0.0
 40
6.0
100
AcDbArc
 50
270.0
 51
0.0
  0
ARC
  5
190
330
2
100
AcDbEntity
  8
Access .1
  6
HIDDEN
100
AcDbCircle
 10
-6312.848698920315
 20
-22811.06941026627
 30
0.0
 40
6.0
100
AcDbArc
 50
270.0
 51
0.0
  0
LINE
  5
191
330
2
100
AcDbEntity
  8
Access .1
  6
HIDDEN
100
AcDbLine
 10
-6326.132465274813
 20
-22817.06941026627
 30
0.0
 11
-6312.848698920315
 21
-22817.06941026627
 31
0.0
  0
ARC
  5
192
330
2
100
AcDbEntity
  8
Access .1
  6
HIDDEN
100
AcDbCircle
 10
-6312.848698920315
 20
-22693.06941026627
 30
0.0
 40
6.0
100
AcDbArc
 50
0.0
 51
90.0
  0
ARC
  5
193
330
2
100
AcDbEntity
  8
Access .1
  6
HIDDEN
100
AcDbCircle
 10
-6312.848698920315
 20
-22678.79797785438
 30
0.0
 40
6.0
100
AcDbArc
 50
270.0
 51
0.0
  0
LINE
  5
194
330
2
100
AcDbEntity
  8
Access .1
  6
HIDDEN
100
AcDbLine
 10
-6306.848698920315
 20
-22559.82402386821
 30
0.0
 11
-6306.848698920315
 21
-22441.82402386821
 31
0.0
  0
LINE
  5
195
330
2
100
AcDbEntity
  8
Access .1
  6
HIDDEN
100
AcDbLine
 10
-6306.848698920315
 20
-22626.44671706724
 30
0.0
 11
-6306.848698920315
 21
-22559.82402386821
 31
0.0
  0
ARC
  5
196
330
2
100
AcDbEntity
  8
Access .1
  6
HIDDEN
100
AcDbCircle
 10
-6312.848698920315
 20
-22559.82402386821
 30
0.0
 40
6.0
100
AcDbArc
 50
270.0
 51
0.0
  0
ARC
  5
197
330
2
100
AcDbEntity
  8
Access .1
  6
HIDDEN
100
AcDbCircle
 10
-6312.848698920315
 20
-22574.09545628009
 30
0.0
 40
6.0
100
AcDbArc
 50
0.0
 51
90.0
  0
LINE
  5
198
330
2
100
AcDbEntity
  8
Access .1
  6
HIDDEN
100
AcDbLine
 10
-6306.848698920315
 20
-22441.82402386821
 30
0.0
 11
-6306.848698920315
 21
-22401.44671706723
 31
0.0
  0
ARC
  5
199
330
2
100
AcDbEntity
  8
Access .1
  6
HIDDEN
100
AcDbCircle
 10
-6341.848698920315
 20
-22432.8240238682
 30
0.0
 40
13.0
100
AcDbArc
 50
180.0
 51
0.0
  0
ARC
  5
19A
330
2
100
AcDbEntity
  8
Access .1
  6
HIDDEN
100
AcDbCircle
 10
-6341.848698920315
 20
-22432.8240238682
 30
0.0
 40
15.99999999999953
100
AcDbArc
 50
190.806922874861
 51
349.193077125139
  0
ARC
  5
19B
330
2
100
AcDbEntity
  8
Access .1
  6
HIDDEN
100
AcDbCircle
 10
-6312.848698920315
 20
-22441.82402386821
 30
0.0
 40
6.0
100
AcDbArc
 50
0.0
 51
90.0
  0
LINE
  5
19C
330
2
100
AcDbEntity
  8
Access .1
  6
HIDDEN
100
AcDbLine
 10
-6328.848698920316
 20
-22432.8240238682
 30
0.0
 11
-6306.848698920315
 21
-22432.8240238682
 31
0.0
  0
LINE
  5
19D
330
2
100
AcDbEntity
  8
Access .1
  6
HIDDEN
100
AcDbLine
 10
-6326.132465274813
 20
-22435.82402386821
 30
0.0
 11
-6312.848698920315
 21
-22435.82402386821
 31
0.0
  0
ARC
  5
19E
330
2
100
AcDbEntity
  8
Access .1
  6
HIDDEN
100
AcDbCircle
 10
-6312.848698920316
 20
-22401.44671706723
 30
0.0
 40
6.0
100
AcDbArc
 50
0.0
 51
90.0
  0
LINE
  5
19F
330
2
100
AcDbEntity
  8
Access .1
  6
HIDDEN
100
AcDbLine
 10
-6306.848698920315
 20
-22368.44671706724
 30
0.0
 11
-6306.848698920315
 21
-22393.44671706724
 31
0.0
  0
ENDSEC
  0
SECTION
  2
OBJECTS
  0
DICTIONARY
  5
9
330
0
100
AcDbDictionary
281
     1
  3
ACAD_COLOR
350
3B
  3
ACAD_GROUP
350
36
  3
ACAD_LAYOUT
350
F
  3
ACAD_MATERIAL
350
B
  3
ACAD_MLINESTYLE
350
37
  3
ACAD_PLOTSETTINGS
350
38
  3
ACAD_PLOTSTYLENAME
350
8
  3
ACAD_TABLESTYLE
350
3C
  3
ACAD_VISUALSTYLE
350
28
  3
AcDbVariableDictionary
350
1B9
  0
DICTIONARY
  5
29
330
25
100
AcDbDictionary
280
     1
281
     1
  0
DICTIONARY
  5
18
330
17
100
AcDbDictionary
280
     1
281
     1
  3
ACAD_LAYERFILTERS
360
19
  3
ACAD_LAYERSTATES
360
1A
  3
ACLYDICTIONARY
360
1B
  0
DICTIONARY
  5
3
330
2
100
AcDbDictionary
280
     1
281
     1
  3
ACAD_SORTENTS
360
1A0
  0
DICTIONARY
  5
3B
102
{ACAD_REACTORS
330
9
102
}
330
9
100
AcDbDictionary
281
     1
  0
DICTIONARY
  5
36
102
{ACAD_REACTORS
330
9
102
}
330
9
100
AcDbDictionary
281
     1
  0
DICTIONARY
  5
F
102
{ACAD_REACTORS
330
9
102
}
330
9
100
AcDbDictionary
281
     1
  3
Layout1
350
14
  3
Model
350
E
  0
DICTIONARY
  5
B
102
{ACAD_REACTORS
330
9
102
}
330
9
100
AcDbDictionary
281
     1
  3
ByBlock
350
3A
  3
ByLayer
350
39
  3
Global
350
A
  0
DICTIONARY
  5
37
102
{ACAD_REACTORS
330
9
102
}
330
9
100
AcDbDictionary
281
     1
  3
Standard
350
3F
  0
DICTIONARY
  5
38
102
{ACAD_REACTORS
330
9
102
}
330
9
100
AcDbDictionary
281
     1
  0
ACDBDICTIONARYWDFLT
  5
8
102
{ACAD_REACTORS
330
9
102
}
330
9
100
AcDbDictionary
281
     1
  3
Normal
350
7
100
AcDbDictionaryWithDefault
340
7
  0
DICTIONARY
  5
3C
102
{ACAD_REACTORS
330
9
102
}
330
9
100
AcDbDictionary
281
     1
  3
Standard
350
40
  0
DICTIONARY
  5
28
102
{ACAD_REACTORS
330
9
102
}
330
9
100
AcDbDictionary
281
     1
  3
2dWireframe
350
27
  3
3D Hidden
350
1C1
  3
3dWireframe
350
42
  3
Basic
350
1C0
  3
Brighten
350
1C4
  3
ColorChange
350
1C8
  3
Conceptual
350
1C2
  3
Dim
350
1C3
  3
Facepattern
350
1C7
  3
Flat
350
1BC
  3
FlatWithEdges
350
1BD
  3
Gouraud
350
1BE
  3
GouraudWithEdges
350
1BF
  3
Linepattern
350
1C6
  3
Realistic
350
41
  3
Thicken
350
1C5
  0
DICTIONARY
  5
1B9
102
{ACAD_REACTORS
330
9
102
}
330
9
100
AcDbDictionary
281
     1
  3
CTABLESTYLE
350
1BA
  0
DICTIONARY
  5
19
102
{ACAD_REACTORS
330
18
102
}
330
18
100
AcDbDictionary
281
     1
  0
DICTIONARY
  5
1A
102
{ACAD_REACTORS
330
18
102
}
330
18
100
AcDbDictionary
281
     1
  0
DICTIONARY
  5
1B
102
{ACAD_REACTORS
330
18
102
}
330
18
100
AcDbDictionary
281
     1
1001
ACAD
1000
<All
  0
SORTENTSTABLE
  5
1A0
102
{ACAD_REACTORS
330
3
102
}
330
3
100
AcDbSortentsTable
330
2
  0
LAYOUT
  5
14
102
{ACAD_XDICTIONARY
360
15
102
}
102
{ACAD_REACTORS
330
F
102
}
330
F
100
AcDbPlotSettings
  1

  2
none_device
  4
ISO_A4_(210.00_x_297.00_MM)
  6

 40
7.5
 41
20.0
 42
7.5
 43
20.0
 44
210.0
 45
297.0
 46
0.0
 47
0.0
 48
0.0
 49
0.0
140
0.0
141
0.0
142
1.0
143
1.0
 70
   688
 72
     1
 73
     1
 74
     5
  7
LCG Normal.ctb
 75
    16
147
1.0
 76
     0
 77
     2
 78
   300
148
0.0
149
0.0
100
AcDbLayout
  1
Layout1
 70
     1
 71
     1
 10
-20.0
 20
-7.5
 11
277.0
 21
202.5
 12
0.0
 22
0.0
 32
0.0
 14
25.69999999999999
 24
19.5
 34
0.0
 15
231.3
 25
175.5
 35
0.0
146
0.0
 13
0.0
 23
0.0
 33
0.0
 16
1.0
 26
0.0
 36
0.0
 17
0.0
 27
1.0
 37
0.0
 76
     0
330
11
1001
ACAD_PSEXT
1000
None
1000
None
1000
Not applicable
1000
The layout will not be plotted unless a new plotter configuration name is selected.
1070
     0
  0
LAYOUT
  5
E
102
{ACAD_REACTORS
330
F
102
}
330
F
100
AcDbPlotSettings
  1

  2
Adobe PDF
  4
A4
  6

 40
3.174999952316284
 41
3.174999952316284
 42
3.175003051757812
 43
3.17498779296875
 44
209.9733276367187
 45
297.0318298339844
 46
0.0
 47
69.20504250468162
 48
4459.497861080963
 49
1641.385426523477
140
6605.242672745349
141
4249.506158453842
142
1.0
143
12.49308833447353
 70
 11956
 72
     1
 73
     0
 74
     1
  7
LCG Normal.ctb
 75
     0
147
0.0800442591317146
 76
     0
 77
     2
 78
   300
148
8742.317240408535
149
24077.55641332195
100
AcDbLayout
  1
Model
 70
     1
 71
     0
 10
0.0
 20
0.0
 11
12.0
 21
9.0
 12
0.0
 22
0.0
 32
0.0
 14
0.0
 24
0.0
 34
0.0
 15
0.0
 25
0.0
 35
0.0
146
0.0
 13
0.0
 23
0.0
 33
0.0
 16
1.0
 26
0.0
 36
0.0
 17
0.0
 27
1.0
 37
0.0
 76
     0
330
2
331
26
1001
ACAD_PSEXT
1000
Adobe PDF
1000
Adobe PDF Converter
1000
Documents\*.pdf
1000

1070
     0
  0
MATERIAL
  5
3A
102
{ACAD_REACTORS
330
B
102
}
330
B
100
AcDbMaterial
  1
ByBlock
  0
MATERIAL
  5
39
102
{ACAD_REACTORS
330
B
102
}
330
B
100
AcDbMaterial
  1
ByLayer
  0
MATERIAL
  5
A
102
{ACAD_REACTORS
330
B
102
}
330
B
100
AcDbMaterial
  1
Global
  0
MLINESTYLE
  5
3F
102
{ACAD_REACTORS
330
37
102
}
330
37
100
AcDbMlineStyle
  2
STANDARD
 70
     0
  3

 62
   256
 51
90.0
 52
90.0
 71
     2
 49
0.5
 62
   256
  6
BYLAYER
 49
-0.5
 62
   256
  6
BYLAYER
  0
ACDBPLACEHOLDER
  5
7
102
{ACAD_REACTORS
330
8
102
}
330
8
  0
TABLESTYLE
  5
40
102
{ACAD_REACTORS
330
3C
102
}
330
3C
100
AcDbTableStyle
  3
Standard
 70
     0
 71
     0
 40
1.5
 41
1.5
280
     0
281
     0
  7
Standard
140
4.5
170
     2
 62
     0
 63
     7
283
     0
 90
        4
 91
        0
  1

274
    -2
284
     1
 64
     0
275
    -2
285
     1
 65
     0
276
    -2
286
     1
 66
     0
277
    -2
287
     1
 67
     0
278
    -2
288
     1
 68
     0
279
    -2
289
     1
 69
     0
  7
Standard
140
6.0
170
     5
 62
     0
 63
     7
283
     0
 90
        4
 91
        0
  1

274
    -2
284
     1
 64
     0
275
    -2
285
     1
 65
     0
276
    -2
286
     1
 66
     0
277
    -2
287
     1
 67
     0
278
    -2
288
     1
 68
     0
279
    -2
289
     1
 69
     0
  7
Standard
140
4.5
170
     5
 62
     0
 63
     7
283
     0
 90
        4
 91
        0
  1

274
    -2
284
     1
 64
     0
275
    -2
285
     1
 65
     0
276
    -2
286
     1
 66
     0
277
    -2
287
     1
 67
     0
278
    -2
288
     1
 68
     0
279
    -2
289
     1
 69
     0
  0
VISUALSTYLE
  5
27
102
{ACAD_REACTORS
330
28
102
}
330
28
100
AcDbVisualStyle
  2
2dWireframe
 70
     4
 71
     0
 72
     2
 73
     0
 90
        0
 40
-0.6
 41
-30.0
 62
     5
 63
     7
421
 16777215
 74
     1
 91
        4
 64
     7
 65
   257
 75
     1
175
     1
 42
1.0
 92
        0
 66
   257
 43
1.0
 76
     1
 77
     6
 78
     2
 67
     7
 79
     5
170
     0
171
     0
290
     0
174
     0
 93
        1
 44
0.0
173
     0
291
     0
 45
0.0
  0
VISUALSTYLE
  5
1C1
102
{ACAD_REACTORS
330
28
102
}
330
28
100
AcDbVisualStyle
  2
3D Hidden
 70
     6
 71
     1
 72
     2
 73
     2
 90
        0
 40
-0.6
 41
-30.0
 62
     5
 63
     7
421
 16777215
 74
     2
 91
        2
 64
     7
 65
   257
 75
     2
175
     1
 42
40.0
 92
        0
 66
   257
 43
1.0
 76
     1
 77
     6
 78
     2
 67
     7
 79
     3
170
     0
171
     0
290
     0
174
     0
 93
        1
 44
0.0
173
     0
291
     0
 45
0.0
  0
VISUALSTYLE
  5
42
102
{ACAD_REACTORS
330
28
102
}
330
28
100
AcDbVisualStyle
  2
3dWireframe
 70
     5
 71
     0
 72
     2
 73
     0
 90
        0
 40
-0.6
 41
-30.0
 62
     5
 63
     7
421
 16777215
 74
     1
 91
        4
 64
     7
 65
   257
 75
     1
175
     1
 42
1.0
 92
        0
 66
   257
 43
1.0
 76
     1
 77
     6
 78
     2
 67
     7
 79
     5
170
     0
171
     0
290
     0
174
     0
 93
        1
 44
0.0
173
     0
291
     0
 45
0.0
  0
VISUALSTYLE
  5
1C0
102
{ACAD_REACTORS
330
28
102
}
330
28
100
AcDbVisualStyle
  2
Basic
 70
     7
 71
     1
 72
     0
 73
     1
 90
        0
 40
-0.6
 41
-30.0
 62
     5
 63
     7
421
 16777215
 74
     0
 91
        4
 64
     7
 65
   257
 75
     1
175
     1
 42
1.0
 92
        8
 66
     7
 43
1.0
 76
     1
 77
     6
 78
     2
 67
     7
 79
     5
170
     0
171
     0
290
     0
174
     0
 93
        1
 44
0.0
173
     0
291
     1
 45
0.0
  0
VISUALSTYLE
  5
1C4
102
{ACAD_REACTORS
330
28
102
}
330
28
100
AcDbVisualStyle
  2
Brighten
 70
    12
 71
     2
 72
     2
 73
     0
 90
        0
 40
-0.6
 41
-30.0
 62
     5
 63
     7
421
 16777215
 74
     1
 91
        4
 64
     7
 65
   257
 75
     1
175
     1
 42
1.0
 92
        8
 66
     7
 43
1.0
 76
     1
 77
     6
 78
     2
 67
     7
 79
     5
170
     0
171
     0
290
     0
174
     0
 93
        1
 44
50.0
173
     0
291
     1
 45
0.0
  0
VISUALSTYLE
  5
1C8
102
{ACAD_REACTORS
330
28
102
}
330
28
100
AcDbVisualStyle
  2
ColorChange
 70
    16
 71
     2
 72
     2
 73
     3
 90
        0
 40
-0.6
 41
-30.0
 62
     5
 63
     8
421
  8421504
 74
     1
 91
        4
 64
     7
 65
   257
 75
     1
175
     1
 42
1.0
 92
        8
 66
     8
424
  8421504
 43
1.0
 76
     1
 77
     6
 78
     2
 67
     7
 79
     5
170
     0
171
     0
290
     0
174
     0
 93
        1
 44
0.0
173
     0
291
     1
 45
0.0
  0
VISUALSTYLE
  5
1C2
102
{ACAD_REACTORS
330
28
102
}
330
28
100
AcDbVisualStyle
  2
Conceptual
 70
     9
 71
     3
 72
     2
 73
     0
 90
        0
 40
-0.6
 41
-30.0
 62
     5
 63
     7
421
 16777215
 74
     2
 91
        2
 64
     7
 65
   257
 75
     1
175
     1
 42
40.0
 92
        8
 66
     7
 43
1.0
 76
     1
 77
     6
 78
     2
 67
     7
 79
     3
170
     0
171
     0
290
     0
174
     0
 93
        1
 44
0.0
173
     0
291
     0
 45
0.0
  0
VISUALSTYLE
  5
1C3
102
{ACAD_REACTORS
330
28
102
}
330
28
100
AcDbVisualStyle
  2
Dim
 70
    11
 71
     2
 72
     2
 73
     0
 90
        0
 40
-0.6
 41
-30.0
 62
     5
 63
     7
421
 16777215
 74
     1
 91
        4
 64
     7
 65
   257
 75
     1
175
     1
 42
1.0
 92
        8
 66
     7
 43
1.0
 76
     1
 77
     6
 78
     2
 67
     7
 79
     5
170
     0
171
     0
290
     0
174
     0
 93
        1
 44
-50.0
173
     0
291
     1
 45
0.0
  0
VISUALSTYLE
  5
1C7
102
{ACAD_REACTORS
330
28
102
}
330
28
100
AcDbVisualStyle
  2
Facepattern
 70
    15
 71
     2
 72
     2
 73
     0
 90
        0
 40
-0.6
 41
-30.0
 62
     5
 63
     7
421
 16777215
 74
     1
 91
        4
 64
     7
 65
   257
 75
     1
175
     1
 42
1.0
 92
        8
 66
     7
 43
1.0
 76
     1
 77
     6
 78
     2
 67
     7
 79
     5
170
     0
171
     0
290
     0
174
     0
 93
        1
 44
0.0
173
     0
291
     1
 45
0.0
  0
VISUALSTYLE
  5
1BC
102
{ACAD_REACTORS
330
28
102
}
330
28
100
AcDbVisualStyle
  2
Flat
 70
     0
 71
     2
 72
     1
 73
     1
 90
        2
 40
-0.6
 41
30.0
 62
     5
 63
     7
421
 16777215
 74
     0
 91
        4
 64
     7
 65
   257
 75
     1
175
     1
 42
1.0
 92
        8
 66
     7
 43
1.0
 76
     1
 77
     6
 78
     2
 67
     7
 79
     5
170
     0
171
     0
290
     0
174
     0
 93
       13
 44
0.0
173
     0
291
     1
 45
0.0
  0
VISUALSTYLE
  5
1BD
102
{ACAD_REACTORS
330
28
102
}
330
28
100
AcDbVisualStyle
  2
FlatWithEdges
 70
     1
 71
     2
 72
     1
 73
     1
 90
        2
 40
-0.6
 41
30.0
 62
     5
 63
     7
421
 16777215
 74
     1
 91
        4
 64
     7
 65
   257
 75
     1
175
     1
 42
1.0
 92
        0
 66
   257
 43
1.0
 76
     1
 77
     6
 78
     2
 67
     7
 79
     5
170
     0
171
     0
290
     0
174
     0
 93
       13
 44
0.0
173
     0
291
     1
 45
0.0
  0
VISUALSTYLE
  5
1BE
102
{ACAD_REACTORS
330
28
102
}
330
28
100
AcDbVisualStyle
  2
Gouraud
 70
     2
 71
     2
 72
     2
 73
     1
 90
        2
 40
-0.6
 41
30.0
 62
     5
 63
     7
421
 16777215
 74
     0
 91
        4
 64
     7
 65
   257
 75
     1
175
     1
 42
1.0
 92
        0
 66
     7
 43
1.0
 76
     1
 77
     6
 78
     2
 67
     7
 79
     5
170
     0
171
     0
290
     0
174
     0
 93
       13
 44
0.0
173
     0
291
     1
 45
0.0
  0
VISUALSTYLE
  5
1BF
102
{ACAD_REACTORS
330
28
102
}
330
28
100
AcDbVisualStyle
  2
GouraudWithEdges
 70
     3
 71
     2
 72
     2
 73
     1
 90
        2
 40
-0.6
 41
30.0
 62
     5
 63
     7
421
 16777215
 74
     1
 91
        4
 64
     7
 65
   257
 75
     1
175
     1
 42
1.0
 92
        0
 66
   257
 43
1.0
 76
     1
 77
     6
 78
     2
 67
     7
 79
     5
170
     0
171
     0
290
     0
174
     0
 93
       13
 44
0.0
173
     0
291
     1
 45
0.0
  0
VISUALSTYLE
  5
1C6
102
{ACAD_REACTORS
330
28
102
}
330
28
100
AcDbVisualStyle
  2
Linepattern
 70
    14
 71
     2
 72
     2
 73
     0
 90
        0
 40
-0.6
 41
-30.0
 62
     5
 63
     7
421
 16777215
 74
     1
 91
        4
 64
     7
 65
   257
 75
     7
175
     7
 42
1.0
 92
        8
 66
     7
 43
1.0
 76
     1
 77
     6
 78
     2
 67
     7
 79
     5
170
     0
171
     0
290
     0
174
     0
 93
        1
 44
0.0
173
     0
291
     1
 45
0.0
  0
VISUALSTYLE
  5
41
102
{ACAD_REACTORS
330
28
102
}
330
28
100
AcDbVisualStyle
  2
Realistic
 70
     8
 71
     2
 72
     2
 73
     0
 90
        0
 40
-0.6
 41
-30.0
 62
     5
 63
     7
421
 16777215
 74
     1
 91
        0
 64
     7
 65
   257
 75
     1
175
     1
 42
1.0
 92
        8
 66
     8
424
  7895160
 43
1.0
 76
     1
 77
     6
 78
     2
 67
     7
 79
     5
170
     0
171
     0
290
     0
174
     0
 93
       13
 44
0.0
173
     0
291
     0
 45
0.0
  0
VISUALSTYLE
  5
1C5
102
{ACAD_REACTORS
330
28
102
}
330
28
100
AcDbVisualStyle
  2
Thicken
 70
    13
 71
     2
 72
     2
 73
     0
 90
        0
 40
-0.6
 41
-30.0
 62
     5
 63
     7
421
 16777215
 74
     1
 91
        4
 64
     7
 65
   257
 75
     1
175
     1
 42
1.0
 92
       12
 66
     7
 43
1.0
 76
     1
 77
     6
 78
     2
 67
     7
 79
     5
170
     0
171
     0
290
     0
174
     0
 93
        1
 44
0.0
173
     0
291
     1
 45
0.0
  0
DICTIONARYVAR
  5
1BA
102
{ACAD_REACTORS
330
1B9
102
}
330
1B9
100
DictionaryVariables
280
     0
  1
STANDARD
  0
DICTIONARY
  5
15
330
14
100
AcDbDictionary
280
     1
281
     1
  3
ADSK_XREC_LAYOUTTHUMBNAIL
360
16
  0
XRECORD
  5
16
102
{ACAD_REACTORS
330
15
102
}
330
15
100
AcDbXrecord
280
     1
310
28000000B40000007F00000001000800000000004C590000000000000000000000010000000000000000000000000000FFFFFF000000000000000000000000000000000000000000000000000000000000000000330000006600000099000000CC000000FF00000000330000333300006633000099330000CC330000FF3300
310
0000660000336600006666000099660000CC660000FF66000000990000339900006699000099990000CC990000FF99000000CC000033CC000066CC000099CC0000CCCC0000FFCC000000FF000033FF000066FF000099FF0000CCFF0000FFFF000000003300330033006600330099003300CC003300FF003300003333003333
310
33006633330099333300CC333300FF33330000663300336633006666330099663300CC663300FF66330000993300339933006699330099993300CC993300FF99330000CC330033CC330066CC330099CC3300CCCC3300FFCC330000FF330033FF330066FF330099FF3300CCFF3300FFFF330000006600330066006600660099
310
006600CC006600FF00660000336600333366006633660099336600CC336600FF33660000666600336666006666660099666600CC666600FF66660000996600339966006699660099996600CC996600FF99660000CC660033CC660066CC660099CC6600CCCC6600FFCC660000FF660033FF660066FF660099FF6600CCFF6600
310
FFFF660000009900330099006600990099009900CC009900FF00990000339900333399006633990099339900CC339900FF33990000669900336699006666990099669900CC669900FF66990000999900339999006699990099999900CC999900FF99990000CC990033CC990066CC990099CC9900CCCC9900FFCC990000FF99
310
0033FF990066FF990099FF9900CCFF9900FFFF99000000CC003300CC006600CC009900CC00CC00CC00FF00CC000033CC003333CC006633CC009933CC00CC33CC00FF33CC000066CC003366CC006666CC009966CC00CC66CC00FF66CC000099CC003399CC006699CC009999CC00CC99CC00FF99CC0000CCCC0033CCCC0066CC
310
CC0099CCCC00CCCCCC00FFCCCC0000FFCC0033FFCC0066FFCC0099FFCC00CCFFCC00FFFFCC000000FF003300FF006600FF009900FF00CC00FF00FF00FF000033FF003333FF006633FF009933FF00CC33FF00FF33FF000066FF003366FF006666FF009966FF00CC66FF00FF66FF000099FF003399FF006699FF009999FF00CC
310
99FF00FF99FF0000CCFF0033CCFF0066CCFF0099CCFF00CCCCFF00FFCCFF0000FFFF0033FFFF0066FFFF0099FFFF00CCFFFF00FFFFFF00000000000D0D0D001A1A1A00282828003535350043434300505050005D5D5D006B6B6B00787878008686860093939300A1A1A100AEAEAE00BBBBBB00C9C9C900D6D6D600E4E4E400
310
F1F1F100FFFFFF0000000000000000000000000000000000000000000000000000000000000000000000000000000000F5F5F5F5F5F5F5F5F5F5F5F5F5F5F5F5F5F5F5F5F5F5F5F5F5F5F5F5F5F5F5F5F5F5F5F5F5F5F5F5F5F5F5F5F5F5F5F5F5F5F5F5F5F5F5F5F5F5F5F5F5F5F5F5F5F5F5F5F5F5F5F5F5F5F5F5F5F5F5
310
F5F5F5F5F5F5F5F5F5F5F5F5F5F5F5F5F5F5F5F5F5F5F5F5F5F5F5F5F5F5F5F5F5F5F5F5F5F5F5F5F5F5F5F5F5F5F5F5F5F5F5F5F5F5F5F5F5F5F5F5F5F5F5F5F5F5F5F5F5F5F5F5F5F5F5F5F5F5F5F5F5F5F5F5F5F5F5F5F5F5F5F5F5F5F5F5F5F5F5F5F5F5E2E2E2E2E2E2E2E2E2E2E2E2E2E2E2E2E2E2E2E2E2E2E2E2E2
310
E2E2E2E2E2E2E2E2E2E2E2E2E2E2E2E2E2E2E2E2E2E2E2E2E2E2E2E2E2E2E2E2E2E2E2E2E2E2E2E2E2E2E2E2E2E2E2E2E2E2E2E2E2E2E2E2E2E2E2E2E2E2E2E2E2E2E2E2E2E2E2E2E2E2E2E2E2E2E2E2E2E2E2E2E2E2E2E2E2E2E2E2E2E2E2E2E2E2E2E2E2E2E2E2E2E2E2E2E2E2E2E2E2E2E2E2E2E2E2E2E2E2E2E2E2E2E2
310
E2E2E2E2E2E2E2E2E2E2E2E2E2E2E2E2E2E2E2E2E2E2E2E2E2E2F5F5E2E2E2E2E2E2E2E2E2E2E2E2E2E2E2E2E2E2E2E2E2E2E2E2E2E2E2E2E2E2E2E2E2E2E2E2E2E2E2E2E2E2E2E2E2E2E2E2E2E2E2E2E2E2E2E2E2E2E2E2E2E2E2E2E2E2E2E2E2E2E2E2E2E2E2E2E2E2E2E2E2E2E2E2E2E2E2E2E2E2E2E2E2E2E2E2E2E2E2
310
E2E2E2E2E2E2E2E2E2E2E2E2E2E2E2E2E2E2E2E2E2E2E2E2E2E2E2E2E2E2E2E2E2E2E2E2E2E2E2E2E2E2E2E2E2E2E2E2E2E2E2E2E2E2E2E2E2E2E2E2E2E2E2E2E2E2E2E2E2E2E2E2E2E2E2E2E2E2E2F5F5E2E2E2E2E2E2E2E2E2E2E2E2E2E2E2E2E2E2E2E2E2E2E2E2E2E2E2E2E2E2E2E2E2E2E2E2E2E2E2E2E2E2E2E2E2E2
310
E2E2E2E2E2E2E2E2E2E2E2E2E2E2E2E2E2E2E2E2E2E2E2E2E2E2E2E2E2E2E2E2E2E2E2E2E2E2E2E2E2E2E2E2E2E2E2E2E2E2E2E2E2E2E2E2E2E2E2E2E2E2E2E2E2E2E2E2E2E2E2E2E2E2E2E2E2E2E2E2E2E2E2E2E2E2E2E2E2E2E2E2E2E2E2E2E2E2E2E2E2E2E2E2E2E2E2E2E2E2E2E2E2E2E2E2E2E2E2E2E2E2E2E2E2E2E2
310
E2E2E2E2E2F5F5E2E2E2E2E2E2E2E2E2E2E2F5F5F5F5F5F5F5F5F5E2E2E2E2E2E2E2E2E2F5F5F5F5F5F5F5F5F5F5F5F5F5F5F5F5F5E2E2E2E2E2E2E2E2E2F5F5F5F5F5F5F5F5F5F5F5F5F5F5F5F5E2E2E2E2E2E2E2E2E2E2F5F5F5F5F5F5F5F5F5F5F5F5F5F5F5F5E2E2E2E2E2E2E2E2E2E2F5F5F5F5F5F5F5F5F5F5F5F5F5
310
F5F5F5E2E2E2E2E2E2E2E2E2F5F5F5F5F5F5F5F5F5F5F5F5F5F5F5F5F5E2E2E2E2E2E2E2E2E2F5F5F5F5F5F5F5F5F5E2E2E2E2E2E2E2E2E2E2E2F5F5E2E2E2E2E2E2E2E2E2E2E2F5E2E2E2E2E2E2E2E2E2E2E2E2E2E2E2E2E2E2E2E2E2E2E2E2E2E2E2E2E2E2E2E2E2E2E2E2E2E2E2E2E2E2E2E2E2E2E2E2E2E2E2E2E2E2E2
310
E2E2E2E2E2E2E2E2E2E2E2E2E2E2E2E2E2E2E2E2E2E2E2E2E2E2E2E2E2E2E2E2E2E2E2E2E2E2E2E2E2E2E2E2E2E2E2E2E2E2E2E2E2E2E2E2E2E2E2E2E2E2E2E2E2E2E2E2E2E2E2E2E2E2E2E2E2E2E2E2E2E2E2E2E2E2E2E2E2E2E2E2E2E2E2E2E2E2E2F5E2E2E2E2E2E2E2E2E2E2E2F5F5E2E2E2E2E2E2E2E2E2E2E2F5E2E2
310
E2E2E2E2E2E2E2E2E2E2E2E2E2E2E2E2E2E2E2E2E2E2E2E2E2E2E2E2E2E2E2E2E2E2E2E2E2E2E2E2E2E2E2E2E2E2E2E2E2E2E2E2E2E2E2E2E2E2E2E2E2E2E2E2E2E2E2E2E2E2E2E2E2E2E2E2E2E2E2E2E2E2E2E2E2E2E2E2E2E2E2E2E2E2E2E2E2E2E2E2E2E2E2E2E2E2E2E2E2E2E2E2E2E2E2E2E2E2E2E2E2E2E2E2E2E2E2
310
E2E2E2E2E2E2E2E2E2E2E2E2E2E2E2E2E2E2E2E2E2E2E2E2E2F5E2E2E2E2E2E2E2E2E2E2E2F5F5E2E2E2E2E2E2E2E2E2E2E2F5E2E2E2E2E2E2E2E2E2E2E2E2E2E2E2E2E2E2E2E2E2E2E2E2E2E2E2E2E2E2E2E2E2E2E2E2E2E2E2E2E2E2E2E2E2E2E2E2E2E2E2E2E2E2E2E2E2E2E2E2E2E2E2E2E2E2E2E2E2E2E2E2E2E2E2E2
310
E2E2E2E2E2E2E2E2E2E2E2E2E2E2E2E2E2E2E2E2E2E2E2E2E2E2E2E2E2E2E2E2E2E2E2E2E2E2E2E2E2E2E2E2E2E2E2E2E2E2E2E2E2E2E2E2E2E2E2E2E2E2E2E2E2E2E2E2E2E2E2E2E2E2E2E2E2E2F5E2E2E2E2E2E2E2E2E2E2E2F5F5E2E2E2E2E2E2E2E2E2E2E2F5E2E2E2E2E2E2E2E2E2E2E2E2E2E2E2E2E2E2E2E2E2E2E2
310
E2E2E2E2E2E2E2E2E2E2E2E2E2E2E2E2E2E2E2E2E2E2E2E2E2E2E2E2E2E2E2E2E2E2E2E2E2E2E2E2E2E2E2E2E2E2E2E2E2E2E2E2E2E2E2E2E2E2E2E2E2E2E2E2E2E2E2E2E2E2E2E2E2E2E2E2E2E2E2E2E2E2E2E2E2E2E2E2E2E2E2E2E2E2E2E2E2E2E2E2E2E2E2E2E2E2E2E2E2E2E2E2E2E2E2E2E2E2E2E2E2E2E2E2E2E2E2
310
E2E2E2E2F5E2E2E2E2E2E2E2E2E2E2E2F5F5E2E2E2E2E2E2E2E2E2E2E2F5E2E2E2E2E2E2E2E2E2E2E2E2E2E2E2E2E2E2E2E2E2E2E2E2E2E2E2E2E2E2E2E2E2E2E2E2E2E2E2E2E2E2E2E2E2E2E2E2E2E2E2E2E2E2E2E2E2E2E2E2E2E2E2E2E2E2E2E2E2E2E2E2E2E2E2E2E2E2E2E2E2E2E2E2E2E2E2E2E2E2E2E2E2E2E2E2E2
310
E2E2E2E2E2E2E2E2E2E2E2E2E2E2E2E2E2E2E2E2E2E2E2E2E2E2E2E2E2E2E2E2E2E2E2E2E2E2E2E2E2E2E2E2E2E2E2E2E2E2E2E2E2E2E2E2E2F5E2E2E2E2E2E2E2E2E2E2E2F5F5E2E2E2E2E2E2E2E2E2E2E2F5E2E2E2E2E2E2E2E2E2E2E2E2E2E2E2E2E2E2E2E2E2E2E2E2E2E2E2E2E2E2E2E2E2E2E2E2E2E2E2E2E2E2E2E2
310
E2E2E2E2E2E2E2E2E2E2E2E2E2E2E2E2E2E2E2E2E2E2E2E2E2E2E2E2E2E2E2E2E2E2E2E2E2E2E2E2E2E2E2E2E2E2E2E2E2E2E2E2E2E2E2E2E2E2E2E2E2E2E2E2E2E2E2E2E2E2E2E2E2E2E2E2E2E2E2E2E2E2E2E2E2E2E2E2E2E2E2E2E2E2E2E2E2E2E2E2E2E2E2E2E2E2E2E2E2E2F5E2E2E2E2E2E2E2E2E2E2E2F5F5E2E2E2
310
E2E2E2E2E2E2E2E2F5E2E2E2E2E2E2E2E2E2E2E2E2E2E2E2E2E2E2E2E2E2E2E2E2E2E2E2E2E2E2E2E2E2E2E2E2E2E2E2E2E2E2E2E2E2E2E2E2E2E2E2E2E2E2E2E2E2E2E2E2E2E2E2E2E2E2E2E2E2E2E2E2E2E2E2E2E2E2E2E2E2E2E2E2E2E2E2E2E2E2E2E2E2E2E2E2E2E2E2E2E2E2E2E2E2E2E2E2E2E2E2E2E2E2E2E2E2E2
310
E2E2E2E2E2E2E2E2E2E2E2E2E2E2E2E2E2E2E2E2E2E2E2E2E2E2E2E2E2E2E2E2E2E2E2E2F5E2E2E2E2E2E2E2E2E2E2E2F5F5E2E2E2E2E2E2E2E2E2E2E2E2E2E2E2E2E2E2E2E2E2E2E2E2E2E2E2E2E2E2E2E2E2E2E2E2E2E2E2E2E2E2E2E2E2E2E2E2E2E2E2E2E2E2E2E2E2E2E2E2E2E2E2E2E2E2E2E2E2E2E2E2E2E2E2E2E2
310
E2E2E2E2E2E2E2E2E2E2E2E2E2E2E2E2E2E2E2E2E2E2E2E2E2E2E2E2E2E2E2E2E2E2E2E2E2E2E2E2E2E2E2E2E2E2E2E2E2E2E2E2E2E2E2E2E2E2E2E2E2E2E2E2E2E2E2E2E2E2E2E2E2E2E2E2E2E2E2E2E2E2E2E2E2E2E2E2E2E2E2E2E2E2E2E2E2E2E2E2E2F5F5E2E2E2E2E2E2E2E2E2E2E2E2E2E2E2E2E2E2E2E2E2E2E2E2
310
E2E2E2E2E2E2E2E2E2E2E2E2E2E2E2E2E2E2E2E2E2E2E2E2E2E2E2E2E2E2E2E2E2E2E2E2E2E2E2E2E2E2E2E2E2E2E2E2E2E2E2E2E2E2E2E2E2E2E2E2E2E2E2E2E2E2E2E2E2E2E2E2E2E2E2E2E2E2E2E2E2E2E2E2E2E2E2E2E2E2E2E2E2E2E2E2E2E2E2E2E2E2E2E2E2E2E2E2E2E2E2E2E2E2E2E2E2E2E2E2E2E2E2E2E2E2E2
310
E2E2E2E2E2E2E2E2E2E2E2E2E2E2E2E2E2E2E2E2E2E2E2E2E2E2E2F5F5E2E2E2E2E2E2E2E2E2E2E2E2E2E2E2E2E2E2E2E2E2E2E2E2E2E2E2E2E2E2E2E2E2E2E2E2E2E2E2E2E2E2E2E2E2E2E2E2E2E2E2E2E2E2E2E2E2E2E2E2E2E2E2E2E2E2E2E2E2E2E2E2E2E2E2E2E2E2E2E2E2E2E2E2E2E2E2E2E2E2E2E2E2E2E2E2E2E2
310
E2E2E2E2E2E2E2E2E2E2E2E2E2E2E2E2E2E2E2E2E2E2E2E2E2E2E2E2E2E2E2E2E2E2E2E2E2E2E2E2E2E2E2E2E2E2E2E2E2E2E2E2E2E2E2E2E2E2E2E2E2E2E2E2E2E2E2E2E2E2E2E2E2E2E2E2E2E2E2E2F5F5E2E2E2E2E2E2E2E2E2E2E2E2E2E2E2E2E2E2E2E2E2E2E2E2E2E2E2E2E2E2E2E2E2E2E2E2E2E2E2E2E2E2E2E2E2
310
E2E2E2E2E2E2E2E2E2E2E2E2E2E2E2E2E2E2E2E2E2E2E2E2E2E2E2E2E2E2E2E2E2E2E2E2E2E2E2E2E2E2E2E2E2E2E2E2E2E2E2E2E2E2E2E2E2E2E2E2E2E2E2E2E2E2E2E2E2E2E2E2E2E2E2E2E2E2E2E2E2E2E2E2E2E2E2E2E2E2E2E2E2E2E2E2E2E2E2E2E2E2E2E2E2E2E2E2E2E2E2E2E2E2E2E2E2E2E2E2E2E2E2E2E2E2E2
310
E2E2E2E2E2E2F5F5E2E2E2E2E2E2E2E2E2E2E2E2E2E2E2E2E2E2E2E2E2E2E2E2E2E2E2F5F5F5F5F5F5F5F5F5F5F5F5F5F5F5F5F5F5F5F5F5F5F5F5F5F5F5F5F5F5F5F5F5F5F5F5F5F5F5F5F5F5F5F5F5F5F5F5F5F5F5F5F5F5F5F5F5F5F5F5F5F5F5F5F5F5F5F5F5F5F5F5F5F5F5F5F5F5F5F5F5F5F5F5F5F5F5F5F5F5F5F5
310
F5F5F5F5F5F5F5F5F5F5F5F5F5F5F5F5F5F5F5F5F5F5F5F5F5F5F5F5F5F5F5F5E2E2E2E2E2E2E2E2E2E2E2E2E2E2E2E2E2E2E2E2E2E2E2E2E2E2E2F5F5E2E2E2E2E2E2E2E2E2E2E2E2E2E2E2E2E2E2E2E2E2E2E2E2E2E2E2F5E2E2E2E2E2E2E2E2E2E2E2E2E2E2E2E2E2E2E2E2E2E2E2E2E2E2E2E2E2E2E2E2E2E2E2E2E2E2
310
E2E2E2E2E2E2E2E2E2E2E2E2E2E2E2E2E2E2E2E2E2E2E2E2E2E2E2E2E2E2E2E2E2E2E2E2E2E2E2E2E2E2E2E2E2E2E2E2E2E2E2E2E2E2E2E2E2E2E2E2E2E2E2E2E2E2E2E2E2E2E2E2E2E2E2E2E2E2E2E2E2E2E2E2F5E2E2E2E2E2E2E2E2E2E2E2E2E2E2E2E2E2E2E2E2E2E2E2E2E2E2E2F5F5E2E2E2E2E2E2E2E2E2E2E2E2E2
310
E2E2E2E2E2E2E2E2E2E2E2E2E2E2F5E2E2E2E2E2E2E2E2E2E2E2E2E2E2E2E2E2E2E2E2E2E2E2E2E2E2E2E2E2E2E2E2E2E2E2E2E2E2E2E2E2E2E2E2E2E2E2E2E2E2E2E2E2E2E2E2E2E2E2E2E2E2E2E2E2E2E2E2E2E2E2E2E2E2E2E2E2E2E2E2E2E2E2E2E2E2E2E2E2E2E2E2E2E2E2E2E2E2E2E2E2E2E2E2E2E2E2E2E2E2E2E2
310
E2E2E2E2E2E2E2E2E2E2F5E2E2E2E2E2E2E2E2E2E2E2E2E2E2E2E2E2E2E2E2E2E2E2E2E2E2E2F5F5E2E2E2E2E2E2E2E2E2E2E2E2E2E2E2E2E2E2E2E2E2E2E2E2E2E2E2F5E2E2E2E2E2E2E2E2E2E2E2E2E2E2E2E2E2E2E2E2E2E2E2E2E2E2E2E2E2E2E2E2E2E2E2E2E2E2E2E2E2E2E2E2E2E2E2E2E2E2E2E2E2E2E2E2E2E2E2
310
E2E2E2E2E2E2E2E2E2E2E2E2E2E2E2E2E2E2E2E2E2E2E2E2E2E2E2E2E2E2E2E2E2E2E2E2E2E2E2E2E2E2E2E2E2E2E2E2E2E2E2E2E2E2E2E2E2E2E2E2E2E2E2F5E2E2E2E2E2E2E2E2E2E2E2E2E2E2E2E2E2E2E2E2E2E2E2E2E2E2E2F5F5E2E2E2E2E2E2E2E2E2E2E2F5E2E2E2E2E2E2E2E2E2E2E2E2E2E2E2F5E2E2E2E2E2E2
310
E2E2E2E2E2E2E2E2E2E2E2E2E2E2E2E2E2E2E2E2E2E2E2E2E2E2E2E2E2E2E2E2E2E2E2E2E2E2E2E2E2E2E2E2E2E2E2E2E2E2E2E2E2E2E2E2E2E2E2E2E2E2E2E2E2E2E2E2E2E2E2E2E2E2E2E2E2E2E2E2E2E2E2E2E2E2E2E2E2E2E2E2E2E2E2E2E2E2E2E2E2E2E2E2E2E2E2E2E2E2E2E2E2E2E2E2F5E2E2E2E2E2E2E2E2E2E2
310
E2E2E2E2E2F5E2E2E2E2E2E2E2E2E2E2E2F5F5E2E2E2E2E2E2E2E2E2E2E2F5E2E2E2E2E2E2E2E2E2E2E2E2E2E2E2F5E2E2E2E2E2E2E2E2E2E2E2E2E2E2E2E2E2E2E2E2E2E2E2E2E2E2E2E2E2E2E2E2E2E2E2E2E2E2E2E2E2E2E2E2E2E2E2E2E2E2E2E2E2E2E2E2E2E2E2E2E2E2E2E2E2E2E2E2E2E2E2E2E2E2E2E2E2E2E2E2
310
E2E2E2E2E2E2E2E2E2E2E2E2E2E2E2E2E2E2E2E2E2E2E2E2E2E2E2E2E2E2E2E2E2E2E2E2E2E2E2E2E2E2F5E2E2E2E2E2E2E2E2E2E2E2E2E2E2E2F5E2E2E2E2E2E2E2E2E2E2E2F5F5E2E2E2E2E2E2E2E2E2E2E2F5E2E2E2E2E2E2E2E2E2E2E2E2E2E2E2F5E2E2E2E2E2E2E2E2E2E2E2E2E2E2E2E2E2E2E2E2E2E2E2E2E2E2E2
310
E2E2E2E2E2E2E2E2E2E2E2E2E2E2E2E2E2E2E2E2E2E2E2E2E2E2E2E2E2E2E2E2E2E2E2E2E2E2E2E2E2E2E2E2E2E2E2E2E2E2E2E2E2E2E2E2E2E2E2E2E2E2E2E2E2E2E2E2E2E2E2E2E2E2E2E2E2E2E2E2E2E2E2E2E2E2E2E2E2E2E2E2E2E2E2F5E2E2E2E2E2E2E2E2E2E2E2E2E2E2E2F5E2E2E2E2E2E2E2E2E2E2E2F5F5E2E2
310
E2E2E2E2E2E2E2E2E2F5E2E2E2E2E2E2E2E2E2E2E2E2E2E2E2F5E2E2E2E2E2E2E2E2E2E2E2E2E2E2E2E2E2E2E2E2E2E2E2E2E2E2E2E2E2E2E2E2E2E2E2E2E2E2E2E2E2E2E2E2E2E2E2E2E2E2E2E2E2E2E2E2E2E2E2E2E2E2E2E2E2E2E2E2E2E2E2E2E2E2E2E2E2E2E2E2E2E2E2E2E2E2E2E2E2E2E2E2E2E2E2E2E2E2E2E2E2
310
E2E2E2E2E2E2E2E2E2E2E2E2E2E2E2E2E2E2E2E2E2F5E2E2E2E2E2E2E2E2E2E2E2E2E2E2E2F5E2E2E2E2E2E2E2E2E2E2E2F5F5E2E2E2E2E2E2E2E2E2E2E2F5E2E2E2E2E2E2E2E2E2E2E2E2E2E2E2F5E2E2E2E2E2E2E2E2E2E2E2E2E2E2E2E2E2E2E2E2E2E2E2E2E2E2E2E2E2E2E2E2E2E2E2E2E2E2E2E2E2E2E2E2E2E2E2E2
310
E2E2E2E2E2E2E2E2E2E2E2E2E2E2E2E2E2E2E2E2E2E2E2E2E2E2E2E2E2E2E2E2E2E2E2E2E2E2E2E2E2E2E2E2E2E2E2E2E2E2E2E2E2E2E2E2E2E2E2E2E2E2E2E2E2E2E2E2E2E2E2E2E2E2F5E2E2E2E2E2E2E2E2E2E2E2E2E2E2E2F5E2E2E2E2E2E2E2E2E2E2E2F5F5E2E2E2E2E2E2E2E2E2E2E2F5E2E2E2E2E2E2E2E2E2E2E2
310
E2E2E2E2F5E2E2E2E2E2E2E2E2E2E2E2E2E2E2E2E2E2E2E2E2E2E2E2E2E2E2E2E2E2E2E2E2E2E2E2E2E2E2E2E2E2E2E2E2E2E2E2E2E2E2E2E2E2E2E2E2E2E2E2E2E2E2E2E2E2E2E2E2E2E2E2E2E2E2E2E2E2E2E2E2E2E2E2E2E2E2E2E2E2E2E2E2E2E2E2E2E2E2E2E2E2E2E2E2E2E2E2E2E2E2E2E2E2E2E2E2E2E2E2E2E2E2
310
F5E2E2E2E2E2E2E2E2E2E2E2E2E2E2E2F5E2E2E2E2E2E2E2E2E2E2E2F5F5E2E2E2E2E2E2E2E2E2E2E2F5E2E2E2E2E2E2E2E2E2E2E2E2E2E2E2F5E2E2E2E2E2E2E2E2E2E2E2E2E2E2E2E2E2E2E2E2E2E2E2E2E2E2E2E2E2E2E2E2E2E2E2E2E2E2E2E2E2E2E2E2E2E2E2E2E2E2E2E2E2E2E2E2E2E2E2E2E2E2E2E2E2E2E2E2E2
310
E2E2E2E2E2E2E2E2E2E2E2E2E2E2E2E2E2E2E2E2E2E2E2E2E2E2E2E2E2E2E2E2E2E2E2E2E2E2E2E2E2E2E2E2E2E2E2E2E2E2E2E2E2F5E2E2E2E2E2E2E2E2E2E2E2E2E2E2E2F5E2E2E2E2E2E2E2E2E2E2E2F5F5E2E2E2E2E2E2E2E2E2E2E2F5E2E2E2E2E2E2E2E2E2E2E2E2E2E2E2F5E2E2E2E2E2E2E2E2E2E2E2E2E2E2E2E2
310
E2E2E2E2E2E2E2E2E2E2E2E2E2E2E2E2E2E2E2E2E2E2E2E2E2E2E2E2E2E2E2E2E2E2E2E2E2E2E2E2E2E2E2E2E2E2E2E2E2E2E2E2E2E2E2E2E2E2E2E2E2E2E2E2E2E2E2E2E2E2E2E2E2E2E2E2E2E2E2E2E2E2E2E2E2E2E2E2E2E2E2E2E2E2E2E2E2E2E2E2E2E2E2E2E2E2F5E2E2E2E2E2E2E2E2E2E2E2E2E2E2E2F5E2E2E2E2
310
E2E2E2E2E2E2E2F5F5E2E2E2E2E2E2E2E2E2E2E2F5E2E2E2E2E2E2E2E2E2E2E2E2E2E2E2F5E2E2E2E2E2E2E2E2E2E2E2E2E2E2E2E2E2E2E2E2E2E2E2E2E2E2E2E2E2E2E2E2E2E2E2E2E2E2E2E2E2E2E2E2E2E2E2E2E2E2E2E2E2E2E2E2E2E2E2E2E2E2E2E2E2E2E2E2E2E2E2E2E2E2E2E2E2E2E2E2E2E2E2E2E2E2E2E2E2E2
310
E2E2E2E2E2E2E2E2E2E2E2E2E2E2E2E2E2E2E2E2E2E2E2E2E2E2E2E2E2E2E2E2F5E2E2E2E2E2E2E2E2E2E2E2E2E2E2E2F5E2E2E2E2E2E2E2E2E2E2E2F5F5E2E2E2E2E2E2E2E2E2E2E2F5E2E2E2E2E2E2E2E2E2E2E2E2E2E2E2F5E2E2E2E2E2E2E2E2E2E2E2E2E2E2E2E2E2E2E2E2E2E2E2E2E2E2E2E2E2E2E2E2E2E2E2E2E2
310
E2E2E2E2E2E2E2E2E2E2E2E2E2E2E2E2E2E2E2E2E2E2E2E2E2E2E2E2E2E2E2E2E2E2E2E2E2E2E2E2E2E2E2E2E2E2E2E2E2E2E2E2E2E2E2E2E2E2E2E2E2E2E2E2E2E2E2E2E2E2E2E2E2E2E2E2E2E2E2E2E2E2E2E2E2F5E2E2E2E2E2E2E2E2E2E2E2E2E2E2E2F5E2E2E2E2E2E2E2E2E2E2E2F5F5E2E2E2E2E2E2E2E2E2E2E2F5
310
E2E2E2E2E2E2E2E2E2E2E2E2E2E2E2F5E2E2E2E2E2E2E2E2E2E2E2E2E2E2E2E2E2E2E2E2E2E2E2E2E2E2E2E2E2E2E2E2E2E2E2E2E2E2E2E2E2E2E2E2E2E2E2E2E2E2E2E2E2E2E2E2E2E2E2E2E2E2E2E2E2E2E2E2E2E2E2E2E2E2E2E2E2E2E2E2E2E2E2E2E2E2E2E2E2E2E2E2E2E2E2E2E2E2E2E2E2E2E2E2E2E2E2E2E2E2E2
310
E2E2E2E2E2E2E2E2E2E2E2F5E2E2E2E2E2E2E2E2E2E2E2E2E2E2E2F5E2E2E2E2E2E2E2E2E2E2E2F5F5E2E2E2E2E2E2E2E2E2E2E2F5E2E2E2E2E2E2E2E2E2E2E2E2E2E2E2F5E2E2E2E2E2E2E2E2E2E2E2E2E2E2E2E2E2E2E2E2E2E2E2E2E2E2E2E2E2E2E2E2E2E2E2E2E2E2E2E2E2E2E2E2E2E2E2E2E2E2E2E2E2E2E2E2E2E2
310
E2E2E2E2E2E2E2E2E2E2E2E2E2E2E2E2E2E2E2E2E2E2E2E2E2E2E2E2E2E2E2E2E2E2E2E2E2E2E2E2E2E2E2E2E2E2E2E2E2E2E2E2E2E2E2E2E2E2E2E2E2E2E2E2F5E2E2E2E2E2E2E2E2E2E2E2E2E2E2E2F5E2E2E2E2E2E2E2E2E2E2E2F5F5E2E2E2E2E2E2E2E2E2E2E2F5E2E2E2E2E2E2E2E2E2E2E2E2E2E2E2F5E2E2E2E2E2
310
E2E2E2E2E2E2E2E2E2E2E2E2E2E2E2E2E2E2E2E2E2E2E2E2E2E2E2E2E2E2E2E2E2E2E2E2E2E2E2E2E2E2E2E2E2E2E2E2E2E2E2E2E2E2E2E2E2E2E2E2E2E2E2E2E2E2E2E2E2E2E2E2E2E2E2E2E2E2E2E2E2E2E2E2E2E2E2E2E2E2E2E2E2E2E2E2E2E2E2E2E2E2E2E2E2E2E2E2E2E2E2E2E2E2E2E2E2F5E2E2E2E2E2E2E2E2E2
310
E2E2E2E2E2E2F5E2E2E2E2E2E2E2E2E2E2E2F5F5E2E2E2E2E2E2E2E2E2E2E2F5E2E2E2E2E2E2E2E2E2E2E2E2E2E2E2F5E2E2E2E2E2E2E2E2E2E2E2E2E2E2E2E2E2E2E2E2E2E2E2E2E2E2E2E2E2E2E2E2E2E2E2E2E2E2E2E2E2E2E2E2E2E2E2E2E2E2E2E2E2E2E2E2E2E2E2E2E2E2E2E2E2E2E2E2E2E2E2E2E2E2E2E2E2E2E2
310
E2E2E2E2E2E2E2E2E2E2E2E2E2E2E2E2E2E2E2E2E2E2E2E2E2E2E2E2E2E2E2E2E2E2E2E2E2E2E2E2E2E2E2F5E2E2E2E2E2E2E2E2E2E2E2E2E2E2E2F5E2E2E2E2E2E2E2E2E2E2E2F5F5E2E2E2E2E2E2E2E2E2E2E2F5E2E2E2E2E2E2E2E2E2E2E2E2E2E2E2F5E2E2E2E2E2E2E2E2E2E2E2E2E2E2E2E2E2E2E2E2E2E2E2E2E2E2
310
E2E2E2E2E2E2E2E2E2E2E2E2E2E2E2E2E2E2E2E2E2E2E2E2E2E2E2E2E2E2E2E2E2E2E2E2E2E2E2E2E2E2E2E2E2E2E2E2E2E2E2E2E2E2E2E2E2E2E2E2E2E2E2E2E2E2E2E2E2E2E2E2E2E2E2E2E2E2E2E2E2E2E2E2E2E2E2E2E2E2E2E2E2E2E2E2F5E2E2E2E2E2E2E2E2E2E2E2E2E2E2E2F5E2E2E2E2E2E2E2E2E2E2E2F5F5E2
310
E2E2E2E2E2E2E2E2E2E2E2E2E2E2E2E2E2E2E2E2E2E2E2E2E2E2F5E2E2E2E2E2E2E2E2E2E2E2E2E2E2E2E2E2E2E2E2E2E2E2E2E2E2E2E2E2E2E2E2E2E2E2E2E2E2E2E2E2E2E2E2E2E2E2E2E2E2E2E2E2E2E2E2E2E2E2E2E2E2E2E2E2E2E2E2E2E2E2E2E2E2E2E2E2E2E2E2E2E2E2E2E2E2E2E2E2E2E2E2E2E2E2E2E2E2E2E2
310
E2E2E2E2E2E2E2E2E2E2E2E2E2E2E2E2E2E2E2E2E2E2F5E2E2E2E2E2E2E2E2E2E2E2E2E2E2E2E2E2E2E2E2E2E2E2E2E2E2E2F5F5E2E2E2E2E2E2E2E2E2E2E2E2E2E2E2E2E2E2E2E2E2E2E2E2E2E2E2F5E2E2E2E2E2E2E2E2E2E2E2E2E2E2E2E2E2E2E2E2E2E2E2E2E2E2E2E2E2E2E2E2E2E2E2E2E2E2E2E2E2E2E2E2E2E2E2
310
E2E2E2E2E2E2E2E2E2E2E2E2E2E2E2E2E2E2E2E2E2E2E2E2E2E2E2E2E2E2E2E2E2E2E2E2E2E2E2E2E2E2E2E2E2E2E2E2E2E2E2E2E2E2E2E2E2E2E2E2E2E2E2E2E2E2E2E2E2E2E2E2E2E2E2F5E2E2E2E2E2E2E2E2E2E2E2E2E2E2E2E2E2E2E2E2E2E2E2E2E2E2E2F5F5E2E2E2E2E2E2E2E2E2E2E2E2E2E2E2E2E2E2E2E2E2E2
310
E2E2E2E2E2F5E2E2E2E2E2E2E2E2E2E2E2E2E2E2E2E2E2E2E2E2E2E2E2E2E2E2E2E2E2E2E2E2E2E2E2E2E2E2E2E2E2E2E2E2E2E2E2E2E2E2E2E2E2E2E2E2E2E2E2E2E2E2E2E2E2E2E2E2E2E2E2E2E2E2E2E2E2E2E2E2E2E2E2E2E2E2E2E2E2E2E2E2E2E2E2E2E2E2E2E2E2E2E2E2E2E2E2E2E2E2E2E2E2E2E2E2E2E2E2E2E2
310
E2F5E2E2E2E2E2E2E2E2E2E2E2E2E2E2E2E2E2E2E2E2E2E2E2E2E2E2E2F5F5E2E2E2E2E2E2E2E2E2E2E2E2E2E2E2E2E2E2E2E2E2E2E2E2E2E2E2F5E2E2E2E2E2E2E2E2E2E2E2E2E2E2E2E2E2E2E2E2E2E2E2E2E2E2E2E2E2E2E2E2E2E2E2E2E2E2E2E2E2E2E2E2E2E2E2E2E2E2E2E2E2E2E2E2E2E2E2E2E2E2E2E2E2E2E2E2
310
E2E2E2E2E2E2E2E2E2E2E2E2E2E2E2E2E2E2E2E2E2E2E2E2E2E2E2E2E2E2E2E2E2E2E2E2E2E2E2E2E2E2E2E2E2E2E2E2E2E2E2E2E2E2F5E2E2E2E2E2E2E2E2E2E2E2E2E2E2E2E2E2E2E2E2E2E2E2E2E2E2E2F5F5E2E2E2E2E2E2E2E2E2E2E2E2E2E2E2E2E2E2E2E2E2E2E2E2E2E2E2F5E2E2E2E2E2E2E2E2E2E2E2E2E2E2E2
310
E2E2E2E2E2E2E2E2E2E2E2E2E2E2E2E2E2E2E2E2E2E2E2E2E2E2E2E2E2E2E2E2E2E2E2E2E2E2E2E2E2E2E2E2E2E2E2E2E2E2E2E2E2E2E2E2E2E2E2E2E2E2E2E2E2E2E2E2E2E2E2E2E2E2E2E2E2E2E2E2E2E2E2E2E2E2E2E2E2E2E2E2E2E2E2E2E2E2E2E2E2E2E2E2E2E2E2F5E2E2E2E2E2E2E2E2E2E2E2E2E2E2E2E2E2E2E2
310
E2E2E2E2E2E2E2E2F5F5E2E2E2E2E2E2E2E2E2E2E2E2E2E2E2E2E2E2E2E2E2E2E2E2E2E2E2F5E2E2E2E2E2E2E2E2E2E2E2E2E2E2E2E2E2E2E2E2E2E2E2E2E2E2E2E2E2E2E2E2E2E2E2E2E2E2E2E2E2E2E2E2E2E2E2E2E2E2E2E2E2E2E2E2E2E2E2E2E2E2E2E2E2E2E2E2E2E2E2E2E2E2E2E2E2E2E2E2E2E2E2E2E2E2E2E2E2
310
E2E2E2E2E2E2E2E2E2E2E2E2E2E2E2E2E2E2E2E2E2E2E2E2E2E2E2E2E2E2E2E2E2F5E2E2E2E2E2E2E2E2E2E2E2E2E2E2E2E2E2E2E2E2E2E2E2E2E2E2E2F5F5E2E2E2E2E2E2E2E2E2E2E2E2E2E2E2E2E2E2E2E2E2E2E2E2E2E2E2F5E2E2E2E2E2E2E2E2E2E2E2E2E2E2E2E2E2E2E2E2E2E2E2E2E2E2E2E2E2E2E2E2E2E2E2E2
310
E2E2E2E2E2E2E2E2E2E2E2E2E2E2E2E2E2E2E2E2E2E2E2E2E2E2E2E2E2E2E2E2E2E2E2E2E2E2E2E2E2E2E2E2E2E2E2E2E2E2E2E2E2E2E2E2E2E2E2E2E2E2E2E2E2E2E2E2E2E2E2E2E2E2E2E2E2E2E2E2E2E2E2E2E2E2F5E2E2E2E2E2E2E2E2E2E2E2E2E2E2E2E2E2E2E2E2E2E2E2E2E2E2E2F5F5E2E2E2E2E2E2E2E2E2E2E2
310
E2E2E2E2E2E2E2E2E2E2E2E2E2E2E2E2F5E2E2E2E2E2E2E2E2E2E2E2E2E2E2E2E2E2E2E2E2E2E2E2E2E2E2E2E2E2E2E2E2E2E2E2E2E2E2E2E2E2E2E2E2E2E2E2E2E2E2E2E2E2E2E2E2E2E2E2E2E2E2E2E2E2E2E2E2E2E2E2E2E2E2E2E2E2E2E2E2E2E2E2E2E2E2E2E2E2E2E2E2E2E2E2E2E2E2E2E2E2E2E2E2E2E2E2E2E2E2
310
E2E2E2E2E2E2E2E2E2E2E2E2F5E2E2E2E2E2E2E2E2E2E2E2E2E2E2E2E2E2E2E2E2E2E2E2E2E2E2E2F5F5E2E2E2E2E2E2E2E2E2E2E2E2E2E2E2E2E2E2E2E2E2E2E2E2E2E2E2F5E2E2E2E2E2E2E2E2E2E2E2E2E2E2E2E2E2E2E2E2E2E2E2E2E2E2E2E2E2E2E2E2E2E2E2E2E2E2E2E2E2E2E2E2E2E2E2E2E2E2E2E2E2E2E2E2E2
310
E2E2E2E2E2E2E2E2E2E2E2E2E2E2E2E2E2E2E2E2E2E2E2E2E2E2E2E2E2E2E2E2E2E2E2E2E2E2E2E2E2E2E2E2E2E2E2E2E2E2E2E2E2E2E2E2E2E2E2E2E2E2E2E2E2F5E2E2E2E2E2E2E2E2E2E2E2E2E2E2E2E2E2E2E2E2E2E2E2E2E2E2E2F5F5E2E2E2E2E2E2E2E2E2E2E2F5E2E2E2E2E2E2E2E2E2E2E2E2E2E2E2F5E2E2E2E2
310
E2E2E2E2E2E2E2E2E2E2E2E2E2E2E2E2E2E2E2E2E2E2E2E2E2E2E2E2E2E2E2E2E2E2E2E2E2E2E2E2E2E2E2E2E2E2E2E2E2E2E2E2E2E2E2E2E2E2E2E2E2E2E2E2E2E2E2E2E2E2E2E2E2E2E2E2E2E2E2E2E2E2E2E2E2E2E2E2E2E2E2E2E2E2E2E2E2E2E2E2E2E2E2E2E2E2E2E2E2E2E2E2E2E2E2E2E2E2F5E2E2E2E2E2E2E2E2
310
E2E2E2E2E2E2E2F5E2E2E2E2E2E2E2E2E2E2E2F5F5E2E2E2E2E2E2E2E2E2E2E2F5E2E2E2E2E2E2E2E2E2E2E2E2E2E2E2F5E2E2E2E2E2E2E2E2E2E2E2E2E2E2E2E2E2E2E2E2E2E2E2E2E2E2E2E2E2E2E2E2E2E2E2E2E2E2E2E2E2E2E2E2E2E2E2E2E2E2E2E2E2E2E2E2E2E2E2E2E2E2E2E2E2E2E2E2E2E2E2E2E2E2E2E2E2E2
310
E2E2E2E2E2E2E2E2E2E2E2E2E2E2E2E2E2E2E2E2E2E2E2E2E2E2E2E2E2E2E2E2E2E2E2E2E2E2E2E2E2E2E2E2F5E2E2E2E2E2E2E2E2E2E2E2E2E2E2E2F5E2E2E2E2E2E2E2E2E2E2E2F5F5E2E2E2E2E2E2E2E2E2E2E2F5E2E2E2E2E2E2E2E2E2E2E2E2E2E2E2F5E2E2E2E2E2E2E2E2E2E2E2E2E2E2E2E2E2E2E2E2E2E2E2E2E2
310
E2E2E2E2E2E2E2E2E2E2E2E2E2E2E2E2E2E2E2E2E2E2E2E2E2E2E2E2E2E2E2E2E2E2E2E2E2E2E2E2E2E2E2E2E2E2E2E2E2E2E2E2E2E2E2E2E2E2E2E2E2E2E2E2E2E2E2E2E2E2E2E2E2E2E2E2E2E2E2E2E2E2E2E2E2E2E2E2E2E2E2E2E2E2E2E2E2F5E2E2E2E2E2E2E2E2E2E2E2E2E2E2E2F5E2E2E2E2E2E2E2E2E2E2E2F5F5
310
E2E2E2E2E2E2E2E2E2E2E2F5E2E2E2E2E2E2E2E2E2E2E2E2E2E2E2F5E2E2E2E2E2E2E2E2E2E2E2E2E2E2E2E2E2E2E2E2E2E2E2E2E2E2E2E2E2E2E2E2E2E2E2E2E2E2E2E2E2E2E2E2E2E2E2E2E2E2E2E2E2E2E2E2E2E2E2E2E2E2E2E2E2E2E2E2E2E2E2E2E2E2E2E2E2E2E2E2E2E2E2E2E2E2E2E2E2E2E2E2E2E2E2E2E2E2E2
310
E2E2E2E2E2E2E2E2E2E2E2E2E2E2E2E2E2E2E2E2E2E2E2F5E2E2E2E2E2E2E2E2E2E2E2E2E2E2E2F5E2E2E2E2E2E2E2E2E2E2E2F5F5E2E2E2E2E2E2E2E2E2E2E2F5E2E2E2E2E2E2E2E2E2E2E2E2E2E2E2F5E2E2E2E2E2E2E2E2E2E2E2E2E2E2E2E2E2E2E2E2E2E2E2E2E2E2E2E2E2E2E2E2E2E2E2E2E2E2E2E2E2E2E2E2E2E2
310
E2E2E2E2E2E2E2E2E2E2E2E2E2E2E2E2E2E2E2E2E2E2E2E2E2E2E2E2E2E2E2E2E2E2E2E2E2E2E2E2E2E2E2E2E2E2E2E2E2E2E2E2E2E2E2E2E2E2E2E2E2E2E2E2E2E2E2E2E2E2E2E2E2E2E2E2F5E2E2E2E2E2E2E2E2E2E2E2E2E2E2E2F5E2E2E2E2E2E2E2E2E2E2E2F5F5E2E2E2E2E2E2E2E2E2E2E2F5E2E2E2E2E2E2E2E2E2
310
E2E2E2E2E2E2F5E2E2E2E2E2E2E2E2E2E2E2E2E2E2E2E2E2E2E2E2E2E2E2E2E2E2E2E2E2E2E2E2E2E2E2E2E2E2E2E2E2E2E2E2E2E2E2E2E2E2E2E2E2E2E2E2E2E2E2E2E2E2E2E2E2E2E2E2E2E2E2E2E2E2E2E2E2E2E2E2E2E2E2E2E2E2E2E2E2E2E2E2E2E2E2E2E2E2E2E2E2E2E2E2E2E2E2E2E2E2E2E2E2E2E2E2E2E2E2E2
310
E2E2F5E2E2E2E2E2E2E2E2E2E2E2E2E2E2E2F5E2E2E2E2E2E2E2E2E2E2E2F5F5E2E2E2E2E2E2E2E2E2E2E2F5E2E2E2E2E2E2E2E2E2E2E2E2E2E2E2F5E2E2E2E2E2E2E2E2E2E2E2E2E2E2E2E2E2E2E2E2E2E2E2E2E2E2E2E2E2E2E2E2E2E2E2E2E2E2E2E2E2E2E2E2E2E2E2E2E2E2E2E2E2E2E2E2E2E2E2E2E2E2E2E2E2E2E2
310
E2E2E2E2E2E2E2E2E2E2E2E2E2E2E2E2E2E2E2E2E2E2E2E2E2E2E2E2E2E2E2E2E2E2E2E2E2E2E2E2E2E2E2E2E2E2E2E2E2E2E2E2E2E2E2F5E2E2E2E2E2E2E2E2E2E2E2E2E2E2E2F5E2E2E2E2E2E2E2E2E2E2E2F5F5E2E2E2E2E2E2E2E2E2E2E2F5E2E2E2E2E2E2E2E2E2E2E2E2E2E2E2F5E2E2E2E2E2E2E2E2E2E2E2E2E2E2
310
E2E2E2E2E2E2E2E2E2E2E2E2E2E2E2E2E2E2E2E2E2E2E2E2E2E2E2E2E2E2E2E2E2E2E2E2E2E2E2E2E2E2E2E2E2E2E2E2E2E2E2E2E2E2E2E2E2E2E2E2E2E2E2E2E2E2E2E2E2E2E2E2E2E2E2E2E2E2E2E2E2E2E2E2E2E2E2E2E2E2E2E2E2E2E2E2E2E2E2E2E2E2E2E2E2E2E2E2F5E2E2E2E2E2E2E2E2E2E2E2E2E2E2E2F5E2E2
310
E2E2E2E2E2E2E2E2E2F5F5E2E2E2E2E2E2E2E2E2E2E2F5E2E2E2E2E2E2E2E2E2E2E2E2E2E2E2F5E2E2E2E2E2E2E2E2E2E2E2E2E2E2E2E2E2E2E2E2E2E2E2E2E2E2E2E2E2E2E2E2E2E2E2E2E2E2E2E2E2E2E2E2E2E2E2E2E2E2E2E2E2E2E2E2E2E2E2E2E2E2E2E2E2E2E2E2E2E2E2E2E2E2E2E2E2E2E2E2E2E2E2E2E2E2E2E2
310
E2E2E2E2E2E2E2E2E2E2E2E2E2E2E2E2E2E2E2E2E2E2E2E2E2E2E2E2E2E2E2E2E2E2F5E2E2E2E2E2E2E2E2E2E2E2E2E2E2E2F5E2E2E2E2E2E2E2E2E2E2E2F5F5E2E2E2E2E2E2E2E2E2E2E2F5E2E2E2E2E2E2E2E2E2E2E2E2E2E2E2F5E2E2E2E2E2E2E2E2E2E2E2E2E2E2E2E2E2E2E2E2E2E2E2E2E2E2E2E2E2E2E2E2E2E2E2
310
E2E2E2E2E2E2E2E2E2E2E2E2E2E2E2E2E2E2E2E2E2E2E2E2E2E2E2E2E2E2E2E2E2E2E2E2E2E2E2E2E2E2E2E2E2E2E2E2E2E2E2E2E2E2E2E2E2E2E2E2E2E2E2E2E2E2E2E2E2E2E2E2E2E2E2E2E2E2E2E2E2E2E2E2E2E2E2F5E2E2E2E2E2E2E2E2E2E2E2E2E2E2E2F5E2E2E2E2E2E2E2E2E2E2E2F5F5E2E2E2E2E2E2E2E2E2E2
310
E2F5E2E2E2E2E2E2E2E2E2E2E2E2E2E2E2F5E2E2E2E2E2E2E2E2E2E2E2E2E2E2E2E2E2E2E2E2E2E2E2E2E2E2E2E2E2E2E2E2E2E2E2E2E2E2E2E2E2E2E2E2E2E2E2E2E2E2E2E2E2E2E2E2E2E2E2E2E2E2E2E2E2E2E2E2E2E2E2E2E2E2E2E2E2E2E2E2E2E2E2E2E2E2E2E2E2E2E2E2E2E2E2E2E2E2E2E2E2E2E2E2E2E2E2E2E2
310
E2E2E2E2E2E2E2E2E2E2E2E2E2F5E2E2E2E2E2E2E2E2E2E2E2E2E2E2E2F5E2E2E2E2E2E2E2E2E2E2E2F5F5E2E2E2E2E2E2E2E2E2E2E2F5E2E2E2E2E2E2E2E2E2E2E2E2E2E2E2F5E2E2E2E2E2E2E2E2E2E2E2E2E2E2E2E2E2E2E2E2E2E2E2E2E2E2E2E2E2E2E2E2E2E2E2E2E2E2E2E2E2E2E2E2E2E2E2E2E2E2E2E2E2E2E2E2
310
E2E2E2E2E2E2E2E2E2E2E2E2E2E2E2E2E2E2E2E2E2E2E2E2E2E2E2E2E2E2E2E2E2E2E2E2E2E2E2E2E2E2E2E2E2E2E2E2E2E2E2E2E2E2E2E2E2E2E2E2E2E2E2E2E2E2F5E2E2E2E2E2E2E2E2E2E2E2E2E2E2E2F5E2E2E2E2E2E2E2E2E2E2E2F5F5E2E2E2E2E2E2E2E2E2E2E2F5E2E2E2E2E2E2E2E2E2E2E2E2E2E2E2F5E2E2E2
310
E2E2E2E2E2E2E2E2E2E2E2E2E2E2E2E2E2E2E2E2E2E2E2E2E2E2E2E2E2E2E2E2E2E2E2E2E2E2E2E2E2E2E2E2E2E2E2E2E2E2E2E2E2E2E2E2E2E2E2E2E2E2E2E2E2E2E2E2E2E2E2E2E2E2E2E2E2E2E2E2E2E2E2E2E2E2E2E2E2E2E2E2E2E2E2E2E2E2E2E2E2E2E2E2E2E2E2E2E2E2E2E2E2E2E2E2E2E2E2F5E2E2E2E2E2E2E2
310
E2E2E2E2E2E2E2E2F5E2E2E2E2E2E2E2E2E2E2E2F5F5E2E2E2E2E2E2E2E2E2E2E2F5E2E2E2E2E2E2E2E2E2E2E2E2E2E2E2F5E2E2E2E2E2E2E2E2E2E2E2E2E2E2E2E2E2E2E2E2E2E2E2E2E2E2E2E2E2E2E2E2E2E2E2E2E2E2E2E2E2E2E2E2E2E2E2E2E2E2E2E2E2E2E2E2E2E2E2E2E2E2E2E2E2E2E2E2E2E2E2E2E2E2E2E2E2
310
E2E2E2E2E2E2E2E2E2E2E2E2E2E2E2E2E2E2E2E2E2E2E2E2E2E2E2E2E2E2E2E2E2E2E2E2E2E2E2E2E2E2E2E2E2F5E2E2E2E2E2E2E2E2E2E2E2E2E2E2E2F5E2E2E2E2E2E2E2E2E2E2E2F5F5E2E2E2E2E2E2E2E2E2E2E2F5E2E2E2E2E2E2E2E2E2E2E2E2E2E2E2F5E2E2E2E2E2E2E2E2E2E2E2E2E2E2E2E2E2E2E2E2E2E2E2E2
310
E2E2E2E2E2E2E2E2E2E2E2E2E2E2E2E2E2E2E2E2E2E2E2E2E2E2E2E2E2E2E2E2E2E2E2E2E2E2E2E2E2E2E2E2E2E2E2E2E2E2E2E2E2E2E2E2E2E2E2E2E2E2E2E2E2E2E2E2E2E2E2E2E2E2E2E2E2E2E2E2E2E2E2E2E2E2E2E2E2E2E2E2E2E2E2E2E2E2F5E2E2E2E2E2E2E2E2E2E2E2E2E2E2E2F5E2E2E2E2E2E2E2E2E2E2E2F5
310
F5E2E2E2E2E2E2E2E2E2E2E2E2E2E2E2E2E2E2E2E2E2E2E2E2E2E2E2F5E2E2E2E2E2E2E2E2E2E2E2E2E2E2E2E2E2E2E2E2E2E2E2E2E2E2E2E2E2E2E2E2E2E2E2E2E2E2E2E2E2E2E2E2E2E2E2E2E2E2E2E2E2E2E2E2E2E2E2E2E2E2E2E2E2E2E2E2E2E2E2E2E2E2E2E2E2E2E2E2E2E2E2E2E2E2E2E2E2E2E2E2E2E2E2E2E2E2
310
E2E2E2E2E2E2E2E2E2E2E2E2E2E2E2E2E2E2E2E2E2E2E2E2F5E2E2E2E2E2E2E2E2E2E2E2E2E2E2E2E2E2E2E2E2E2E2E2E2E2E2E2F5F5E2E2E2E2E2E2E2E2E2E2E2E2E2E2E2E2E2E2E2E2E2E2E2E2E2E2E2F5E2E2E2E2E2E2E2E2E2E2E2E2E2E2E2E2E2E2E2E2E2E2E2E2E2E2E2E2E2E2E2E2E2E2E2E2E2E2E2E2E2E2E2E2E2
310
E2E2E2E2E2E2E2E2E2E2E2E2E2E2E2E2E2E2E2E2E2E2E2E2E2E2E2E2E2E2E2E2E2E2E2E2E2E2E2E2E2E2E2E2E2E2E2E2E2E2E2E2E2E2E2E2E2E2E2E2E2E2E2E2E2E2E2E2E2E2E2E2E2E2E2E2E2F5E2E2E2E2E2E2E2E2E2E2E2E2E2E2E2E2E2E2E2E2E2E2E2E2E2E2E2F5F5E2E2E2E2E2E2E2E2E2E2E2E2E2E2E2E2E2E2E2E2
310
E2E2E2E2E2E2E2F5E2E2E2E2E2E2E2E2E2E2E2E2E2E2E2E2E2E2E2E2E2E2E2E2E2E2E2E2E2E2E2E2E2E2E2E2E2E2E2E2E2E2E2E2E2E2E2E2E2E2E2E2E2E2E2E2E2E2E2E2E2E2E2E2E2E2E2E2E2E2E2E2E2E2E2E2E2E2E2E2E2E2E2E2E2E2E2E2E2E2E2E2E2E2E2E2E2E2E2E2E2E2E2E2E2E2E2E2E2E2E2E2E2E2E2E2E2E2E2
310
E2E2E2F5E2E2E2E2E2E2E2E2E2E2E2E2E2E2E2E2E2E2E2E2E2E2E2E2E2E2E2F5F5E2E2E2E2E2E2E2E2E2E2E2E2E2E2E2E2E2E2E2E2E2E2E2E2E2E2E2F5E2E2E2E2E2E2E2E2E2E2E2E2E2E2E2E2E2E2E2E2E2E2E2E2E2E2E2E2E2E2E2E2E2E2E2E2E2E2E2E2E2E2E2E2E2E2E2E2E2E2E2E2E2E2E2E2E2E2E2E2E2E2E2E2E2E2
310
E2E2E2E2E2E2E2E2E2E2E2E2E2E2E2E2E2E2E2E2E2E2E2E2E2E2E2E2E2E2E2E2E2E2E2E2E2E2E2E2E2E2E2E2E2E2E2E2E2E2E2E2E2E2E2E2F5E2E2E2E2E2E2E2E2E2E2E2E2E2E2E2E2E2E2E2E2E2E2E2E2E2E2E2F5F5E2E2E2E2E2E2E2E2E2E2E2E2E2E2E2E2E2E2E2E2E2E2E2E2E2E2E2F5E2E2E2E2E2E2E2E2E2E2E2E2E2
310
E2E2E2E2E2E2E2E2E2E2E2E2E2E2E2E2E2E2E2E2E2E2E2E2E2E2E2E2E2E2E2E2E2E2E2E2E2E2E2E2E2E2E2E2E2E2E2E2E2E2E2E2E2E2E2E2E2E2E2E2E2E2E2E2E2E2E2E2E2E2E2E2E2E2E2E2E2E2E2E2E2E2E2E2E2E2E2E2E2E2E2E2E2E2E2E2E2E2E2E2E2E2E2E2E2E2E2E2E2F5E2E2E2E2E2E2E2E2E2E2E2E2E2E2E2E2E2
310
E2E2E2E2E2E2E2E2E2E2F5F5E2E2E2E2E2E2E2E2E2E2E2E2E2E2E2E2E2E2E2E2E2E2E2E2E2E2E2F5E2E2E2E2E2E2E2E2E2E2E2E2E2E2E2E2E2E2E2E2E2E2E2E2E2E2E2E2E2E2E2E2E2E2E2E2E2E2E2E2E2E2E2E2E2E2E2E2E2E2E2E2E2E2E2E2E2E2E2E2E2E2E2E2E2E2E2E2E2E2E2E2E2E2E2E2E2E2E2E2E2E2E2E2E2E2E2
310
E2E2E2E2E2E2E2E2E2E2E2E2E2E2E2E2E2E2E2E2E2E2E2E2E2E2E2E2E2E2E2E2E2E2E2F5E2E2E2E2E2E2E2E2E2E2E2E2E2E2E2E2E2E2E2E2E2E2E2E2E2E2E2F5F5E2E2E2E2E2E2E2E2E2E2E2E2E2E2E2E2E2E2E2E2E2E2E2E2E2E2E2F5E2E2E2E2E2E2E2E2E2E2E2E2E2E2E2E2E2E2E2E2E2E2E2E2E2E2E2E2E2E2E2E2E2E2
310
E2E2E2E2E2E2E2E2E2E2E2E2E2E2E2E2E2E2E2E2E2E2E2E2E2E2E2E2E2E2E2E2E2E2E2E2E2E2E2E2E2E2E2E2E2E2E2E2E2E2E2E2E2E2E2E2E2E2E2E2E2E2E2E2E2E2E2E2E2E2E2E2E2E2E2E2E2E2E2E2E2E2E2E2E2E2E2E2F5E2E2E2E2E2E2E2E2E2E2E2E2E2E2E2E2E2E2E2E2E2E2E2E2E2E2E2F5F5E2E2E2E2E2E2E2E2E2
310
E2E2E2E2E2E2E2E2E2E2E2E2E2E2E2E2E2E2F5E2E2E2E2E2E2E2E2E2E2E2E2E2E2E2E2E2E2E2E2E2E2E2E2E2E2E2E2E2E2E2E2E2E2E2E2E2E2E2E2E2E2E2E2E2E2E2E2E2E2E2E2E2E2E2E2E2E2E2E2E2E2E2E2E2E2E2E2E2E2E2E2E2E2E2E2E2E2E2E2E2E2E2E2E2E2E2E2E2E2E2E2E2E2E2E2E2E2E2E2E2E2E2E2E2E2E2E2
310
E2E2E2E2E2E2E2E2E2E2E2E2E2E2F5E2E2E2E2E2E2E2E2E2E2E2E2E2E2E2E2E2E2E2E2E2E2E2E2E2E2E2F5F5E2E2E2E2E2E2E2E2E2E2E2F5E2E2E2E2E2E2E2E2E2E2E2E2E2E2E2F5E2E2E2E2E2E2E2E2E2E2E2E2E2E2E2E2E2E2E2E2E2E2E2E2E2E2E2E2E2E2E2E2E2E2E2E2E2E2E2E2E2E2E2E2E2E2E2E2E2E2E2E2E2E2E2
310
E2E2E2E2E2E2E2E2E2E2E2E2E2E2E2E2E2E2E2E2E2E2E2E2E2E2E2E2E2E2E2E2E2E2E2E2E2E2E2E2E2E2E2E2E2E2E2E2E2E2E2E2E2E2E2E2E2E2E2E2E2E2E2E2E2E2E2F5E2E2E2E2E2E2E2E2E2E2E2E2E2E2E2F5E2E2E2E2E2E2E2E2E2E2E2F5F5E2E2E2E2E2E2E2E2E2E2E2F5E2E2E2E2E2E2E2E2E2E2E2E2E2E2E2F5E2E2
310
E2E2E2E2E2E2E2E2E2E2E2E2E2E2E2E2E2E2E2E2E2E2E2E2E2E2E2E2E2E2E2E2E2E2E2E2E2E2E2E2E2E2E2E2E2E2E2E2E2E2E2E2E2E2E2E2E2E2E2E2E2E2E2E2E2E2E2E2E2E2E2E2E2E2E2E2E2E2E2E2E2E2E2E2E2E2E2E2E2E2E2E2E2E2E2E2E2E2E2E2E2E2E2E2E2E2E2E2E2E2E2E2E2E2E2E2E2E2E2E2F5E2E2E2E2E2E2
310
E2E2E2E2E2E2E2E2E2F5E2E2E2E2E2E2E2E2E2E2E2F5F5E2E2E2E2E2E2E2E2E2E2E2F5E2E2E2E2E2E2E2E2E2E2E2E2E2E2E2F5E2E2E2E2E2E2E2E2E2E2E2E2E2E2E2E2E2E2E2E2E2E2E2E2E2E2E2E2E2E2E2E2E2E2E2E2E2E2E2E2E2E2E2E2E2E2E2E2E2E2E2E2E2E2E2E2E2E2E2E2E2E2E2E2E2E2E2E2E2E2E2E2E2E2E2E2
310
E2E2E2E2E2E2E2E2E2E2E2E2E2E2E2E2E2E2E2E2E2E2E2E2E2E2E2E2E2E2E2E2E2E2E2E2E2E2E2E2E2E2E2E2E2E2F5E2E2E2E2E2E2E2E2E2E2E2E2E2E2E2F5E2E2E2E2E2E2E2E2E2E2E2F5F5E2E2E2E2E2E2E2E2E2E2E2F5E2E2E2E2E2E2E2E2E2E2E2E2E2E2E2F5E2E2E2E2E2E2E2E2E2E2E2E2E2E2E2E2E2E2E2E2E2E2E2
310
E2E2E2E2E2E2E2E2E2E2E2E2E2E2E2E2E2E2E2E2E2E2E2E2E2E2E2E2E2E2E2E2E2E2E2E2E2E2E2E2E2E2E2E2E2E2E2E2E2E2E2E2E2E2E2E2E2E2E2E2E2E2E2E2E2E2E2E2E2E2E2E2E2E2E2E2E2E2E2E2E2E2E2E2E2E2E2E2E2E2E2E2E2E2E2E2E2E2E2F5E2E2E2E2E2E2E2E2E2E2E2E2E2E2E2F5E2E2E2E2E2E2E2E2E2E2E2
310
F5F5E2E2E2E2E2E2E2E2E2E2E2F5E2E2E2E2E2E2E2E2E2E2E2E2E2E2E2F5E2E2E2E2E2E2E2E2E2E2E2E2E2E2E2E2E2E2E2E2E2E2E2E2E2E2E2E2E2E2E2E2E2E2E2E2E2E2E2E2E2E2E2E2E2E2E2E2E2E2E2E2E2E2E2E2E2E2E2E2E2E2E2E2E2E2E2E2E2E2E2E2E2E2E2E2E2E2E2E2E2E2E2E2E2E2E2E2E2E2E2E2E2E2E2E2E2
310
E2E2E2E2E2E2E2E2E2E2E2E2E2E2E2E2E2E2E2E2E2E2E2E2E2F5E2E2E2E2E2E2E2E2E2E2E2E2E2E2E2F5E2E2E2E2E2E2E2E2E2E2E2F5F5E2E2E2E2E2E2E2E2E2E2E2F5E2E2E2E2E2E2E2E2E2E2E2E2E2E2E2F5E2E2E2E2E2E2E2E2E2E2E2E2E2E2E2E2E2E2E2E2E2E2E2E2E2E2E2E2E2E2E2E2E2E2E2E2E2E2E2E2E2E2E2E2
310
E2E2E2E2E2E2E2E2E2E2E2E2E2E2E2E2E2E2E2E2E2E2E2E2E2E2E2E2E2E2E2E2E2E2E2E2E2E2E2E2E2E2E2E2E2E2E2E2E2E2E2E2E2E2E2E2E2E2E2E2E2E2E2E2E2E2E2E2E2E2E2E2E2E2E2E2E2E2F5E2E2E2E2E2E2E2E2E2E2E2E2E2E2E2F5E2E2E2E2E2E2E2E2E2E2E2F5F5E2E2E2E2E2E2E2E2E2E2E2F5E2E2E2E2E2E2E2
310
E2E2E2E2E2E2E2E2F5E2E2E2E2E2E2E2E2E2E2E2E2E2E2E2E2E2E2E2E2E2E2E2E2E2E2E2E2E2E2E2E2E2E2E2E2E2E2E2E2E2E2E2E2E2E2E2E2E2E2E2E2E2E2E2E2E2E2E2E2E2E2E2E2E2E2E2E2E2E2E2E2E2E2E2E2E2E2E2E2E2E2E2E2E2E2E2E2E2E2E2E2E2E2E2E2E2E2E2E2E2E2E2E2E2E2E2E2E2E2E2E2E2E2E2E2E2E2
310
E2E2E2E2F5E2E2E2E2E2E2E2E2E2E2E2E2E2E2E2F5E2E2E2E2E2E2E2E2E2E2E2F5F5E2E2E2E2E2E2E2E2E2E2E2F5E2E2E2E2E2E2E2E2E2E2E2E2E2E2E2F5E2E2E2E2E2E2E2E2E2E2E2E2E2E2E2E2E2E2E2E2E2E2E2E2E2E2E2E2E2E2E2E2E2E2E2E2E2E2E2E2E2E2E2E2E2E2E2E2E2E2E2E2E2E2E2E2E2E2E2E2E2E2E2E2E2
310
E2E2E2E2E2E2E2E2E2E2E2E2E2E2E2E2E2E2E2E2E2E2E2E2E2E2E2E2E2E2E2E2E2E2E2E2E2E2E2E2E2E2E2E2E2E2E2E2E2E2E2E2E2E2E2E2E2F5E2E2E2E2E2E2E2E2E2E2E2E2E2E2E2F5E2E2E2E2E2E2E2E2E2E2E2F5F5E2E2E2E2E2E2E2E2E2E2E2F5E2E2E2E2E2E2E2E2E2E2E2E2E2E2E2F5E2E2E2E2E2E2E2E2E2E2E2E2
310
E2E2E2E2E2E2E2E2E2E2E2E2E2E2E2E2E2E2E2E2E2E2E2E2E2E2E2E2E2E2E2E2E2E2E2E2E2E2E2E2E2E2E2E2E2E2E2E2E2E2E2E2E2E2E2E2E2E2E2E2E2E2E2E2E2E2E2E2E2E2E2E2E2E2E2E2E2E2E2E2E2E2E2E2E2E2E2E2E2E2E2E2E2E2E2E2E2E2E2E2E2E2E2E2E2E2E2E2E2E2F5E2E2E2E2E2E2E2E2E2E2E2E2E2E2E2F5
310
E2E2E2E2E2E2E2E2E2E2E2F5F5E2E2E2E2E2E2E2E2E2E2E2F5E2E2E2E2E2E2E2E2E2E2E2E2E2E2E2F5E2E2E2E2E2E2E2E2E2E2E2E2E2E2E2E2E2E2E2E2E2E2E2E2E2E2E2E2E2E2E2E2E2E2E2E2E2E2E2E2E2E2E2E2E2E2E2E2E2E2E2E2E2E2E2E2E2E2E2E2E2E2E2E2E2E2E2E2E2E2E2E2E2E2E2E2E2E2E2E2E2E2E2E2E2E2
310
E2E2E2E2E2E2E2E2E2E2E2E2E2E2E2E2E2E2E2E2E2E2E2E2E2E2E2E2E2E2E2E2E2E2E2E2F5E2E2E2E2E2E2E2E2E2E2E2E2E2E2E2F5E2E2E2E2E2E2E2E2E2E2E2F5F5E2E2E2E2E2E2E2E2E2E2E2F5E2E2E2E2E2E2E2E2E2E2E2E2E2E2E2F5E2E2E2E2E2E2E2E2E2E2E2E2E2E2E2E2E2E2E2E2E2E2E2E2E2E2E2E2E2E2E2E2E2
310
E2E2E2E2E2E2E2E2E2E2E2E2E2E2E2E2E2E2E2E2E2E2E2E2E2E2E2E2E2E2E2E2E2E2E2E2E2E2E2E2E2E2E2E2E2E2E2E2E2E2E2E2E2E2E2E2E2E2E2E2E2E2E2E2E2E2E2E2E2E2E2E2E2E2E2E2E2E2E2E2E2E2E2E2E2E2E2E2E2F5E2E2E2E2E2E2E2E2E2E2E2E2E2E2E2F5E2E2E2E2E2E2E2E2E2E2E2F5F5E2E2E2E2E2E2E2E2
310
E2E2E2F5E2E2E2E2E2E2E2E2E2E2E2E2E2E2E2F5E2E2E2E2E2E2E2E2E2E2E2E2E2E2E2E2E2E2E2E2E2E2E2E2E2E2E2E2E2E2E2E2E2E2E2E2E2E2E2E2E2E2E2E2E2E2E2E2E2E2E2E2E2E2E2E2E2E2E2E2E2E2E2E2E2E2E2E2E2E2E2E2E2E2E2E2E2E2E2E2E2E2E2E2E2E2E2E2E2E2E2E2E2E2E2E2E2E2E2E2E2E2E2E2E2E2E2
310
E2E2E2E2E2E2E2E2E2E2E2E2E2E2E2F5E2E2E2E2E2E2E2E2E2E2E2E2E2E2E2F5E2E2E2E2E2E2E2E2E2E2E2F5F5E2E2E2E2E2E2E2E2E2E2E2F5E2E2E2E2E2E2E2E2E2E2E2E2E2E2E2F5E2E2E2E2E2E2E2E2E2E2E2E2E2E2E2E2E2E2E2E2E2E2E2E2E2E2E2E2E2E2E2E2E2E2E2E2E2E2E2E2E2E2E2E2E2E2E2E2E2E2E2E2E2E2
310
E2E2E2E2E2E2E2E2E2E2E2E2E2E2E2E2E2E2E2E2E2E2E2E2E2E2E2E2E2E2E2E2E2E2E2E2E2E2E2E2E2E2E2E2E2E2E2E2E2E2E2E2E2E2E2E2E2E2E2E2E2E2E2E2E2E2E2E2F5E2E2E2E2E2E2E2E2E2E2E2E2E2E2E2F5E2E2E2E2E2E2E2E2E2E2E2F5F5E2E2E2E2E2E2E2E2E2E2E2F5E2E2E2E2E2E2E2E2E2E2E2E2E2E2E2F5E2
310
E2E2E2E2E2E2E2E2E2E2E2E2E2E2E2E2E2E2E2E2E2E2E2E2E2E2E2E2E2E2E2E2E2E2E2E2E2E2E2E2E2E2E2E2E2E2E2E2E2E2E2E2E2E2E2E2E2E2E2E2E2E2E2E2E2E2E2E2E2E2E2E2E2E2E2E2E2E2E2E2E2E2E2E2E2E2E2E2E2E2E2E2E2E2E2E2E2E2E2E2E2E2E2E2E2E2E2E2E2E2E2E2E2E2E2E2E2E2E2E2E2F5E2E2E2E2E2
310
E2E2E2E2E2E2E2E2E2E2F5E2E2E2E2E2E2E2E2E2E2E2F5F5E2E2E2E2E2E2E2E2E2E2E2F5E2E2E2E2E2E2E2E2E2E2E2E2E2E2E2F5E2E2E2E2E2E2E2E2E2E2E2E2E2E2E2E2E2E2E2E2E2E2E2E2E2E2E2E2E2E2E2E2E2E2E2E2E2E2E2E2E2E2E2E2E2E2E2E2E2E2E2E2E2E2E2E2E2E2E2E2E2E2E2E2E2E2E2E2E2E2E2E2E2E2E2
310
E2E2E2E2E2E2E2E2E2E2E2E2E2E2E2E2E2E2E2E2E2E2E2E2E2E2E2E2E2E2E2E2E2E2E2E2E2E2E2E2E2E2E2E2E2E2E2F5E2E2E2E2E2E2E2E2E2E2E2E2E2E2E2F5E2E2E2E2E2E2E2E2E2E2E2F5F5E2E2E2E2E2E2E2E2E2E2E2E2E2E2E2E2E2E2E2E2E2E2E2E2E2E2E2F5E2E2E2E2E2E2E2E2E2E2E2E2E2E2E2E2E2E2E2E2E2E2
310
E2E2E2E2E2E2E2E2E2E2E2E2E2E2E2E2E2E2E2E2E2E2E2E2E2E2E2E2E2E2E2E2E2E2E2E2E2E2E2E2E2E2E2E2E2E2E2E2E2E2E2E2E2E2E2E2E2E2E2E2E2E2E2E2E2E2E2E2E2E2E2E2E2E2E2E2E2E2E2E2E2E2E2E2E2E2E2E2E2E2E2E2E2E2E2E2E2E2E2E2F5E2E2E2E2E2E2E2E2E2E2E2E2E2E2E2E2E2E2E2E2E2E2E2E2E2E2
310
E2F5F5E2E2E2E2E2E2E2E2E2E2E2E2E2E2E2E2E2E2E2E2E2E2E2E2E2E2E2F5E2E2E2E2E2E2E2E2E2E2E2E2E2E2E2E2E2E2E2E2E2E2E2E2E2E2E2E2E2E2E2E2E2E2E2E2E2E2E2E2E2E2E2E2E2E2E2E2E2E2E2E2E2E2E2E2E2E2E2E2E2E2E2E2E2E2E2E2E2E2E2E2E2E2E2E2E2E2E2E2E2E2E2E2E2E2E2E2E2E2E2E2E2E2E2E2
310
E2E2E2E2E2E2E2E2E2E2E2E2E2E2E2E2E2E2E2E2E2E2E2E2E2E2F5E2E2E2E2E2E2E2E2E2E2E2E2E2E2E2E2E2E2E2E2E2E2E2E2E2E2E2F5F5E2E2E2E2E2E2E2E2E2E2E2E2E2E2E2E2E2E2E2E2E2E2E2E2E2E2E2F5E2E2E2E2E2E2E2E2E2E2E2E2E2E2E2E2E2E2E2E2E2E2E2E2E2E2E2E2E2E2E2E2E2E2E2E2E2E2E2E2E2E2E2
310
E2E2E2E2E2E2E2E2E2E2E2E2E2E2E2E2E2E2E2E2E2E2E2E2E2E2E2E2E2E2E2E2E2E2E2E2E2E2E2E2E2E2E2E2E2E2E2E2E2E2E2E2E2E2E2E2E2E2E2E2E2E2E2E2E2E2E2E2E2E2E2E2E2E2E2E2E2E2E2F5E2E2E2E2E2E2E2E2E2E2E2E2E2E2E2E2E2E2E2E2E2E2E2E2E2E2E2F5F5E2E2E2E2E2E2E2E2E2E2E2E2E2E2E2E2E2E2
310
E2E2E2E2E2E2E2E2E2F5E2E2E2E2E2E2E2E2E2E2E2E2E2E2E2E2E2E2E2E2E2E2E2E2E2E2E2E2E2E2E2E2E2E2E2E2E2E2E2E2E2E2E2E2E2E2E2E2E2E2E2E2E2E2E2E2E2E2E2E2E2E2E2E2E2E2E2E2E2E2E2E2E2E2E2E2E2E2E2E2E2E2E2E2E2E2E2E2E2E2E2E2E2E2E2E2E2E2E2E2E2E2E2E2E2E2E2E2E2E2E2E2E2E2E2E2E2
310
E2E2E2E2E2F5E2E2E2E2E2E2E2E2E2E2E2E2E2E2E2E2E2E2E2E2E2E2E2E2E2E2E2F5F5E2E2E2E2E2E2E2E2E2E2E2E2E2E2E2E2E2E2E2E2E2E2E2E2E2E2E2F5E2E2E2E2E2E2E2E2E2E2E2E2E2E2E2E2E2E2E2E2E2E2E2E2E2E2E2E2E2E2E2E2E2E2E2E2E2E2E2E2E2E2E2E2E2E2E2E2E2E2E2E2E2E2E2E2E2E2E2E2E2E2E2E2
310
E2E2E2E2E2E2E2E2E2E2E2E2E2E2E2E2E2E2E2E2E2E2E2E2E2E2E2E2E2E2E2E2E2E2E2E2E2E2E2E2E2E2E2E2E2E2E2E2E2E2E2E2E2E2E2E2E2E2F5E2E2E2E2E2E2E2E2E2E2E2E2E2E2E2E2E2E2E2E2E2E2E2E2E2E2E2F5F5E2E2E2E2E2E2E2E2E2E2E2E2E2E2E2E2E2E2E2E2E2E2E2E2E2E2E2F5E2E2E2E2E2E2E2E2E2E2E2
310
E2E2E2E2E2E2E2E2E2E2E2E2E2E2E2E2E2E2E2E2E2E2E2E2E2E2E2E2E2E2E2E2E2E2E2E2E2E2E2E2E2E2E2E2E2E2E2E2E2E2E2E2E2E2E2E2E2E2E2E2E2E2E2E2E2E2E2E2E2E2E2E2E2E2E2E2E2E2E2E2E2E2E2E2E2E2E2E2E2E2E2E2E2E2E2E2E2E2E2E2E2E2E2E2E2E2E2E2E2E2E2F5E2E2E2E2E2E2E2E2E2E2E2E2E2E2E2
310
E2E2E2E2E2E2E2E2E2E2E2E2F5F5E2E2E2E2E2E2E2E2E2E2E2E2E2E2E2E2E2E2E2E2E2E2E2E2E2E2E2F5E2E2E2E2E2E2E2E2E2E2E2E2E2E2E2E2E2E2E2E2E2E2E2E2E2E2E2E2E2E2E2E2E2E2E2E2E2E2E2E2E2E2E2E2E2E2E2E2E2E2E2E2E2E2E2E2E2E2E2E2E2E2E2E2E2E2E2E2E2E2E2E2E2E2E2E2E2E2E2E2E2E2E2E2E2
310
E2E2E2E2E2E2E2E2E2E2E2E2E2E2E2E2E2E2E2E2E2E2E2E2E2E2E2E2E2E2E2E2E2E2E2E2E2F5E2E2E2E2E2E2E2E2E2E2E2E2E2E2E2E2E2E2E2E2E2E2E2E2E2E2E2F5F5E2E2E2E2E2E2E2E2E2E2E2E2E2E2E2E2E2E2E2E2E2E2E2E2E2E2E2F5E2E2E2E2E2E2E2E2E2E2E2E2E2E2E2E2E2E2E2E2E2E2E2E2E2E2E2E2E2E2E2E2
310
E2E2E2E2E2E2E2E2E2E2E2E2E2E2E2E2E2E2E2E2E2E2E2E2E2E2E2E2E2E2E2E2E2E2E2E2E2E2E2E2E2E2E2E2E2E2E2E2E2E2E2E2E2E2E2E2E2E2E2E2E2E2E2E2E2E2E2E2E2E2E2E2E2E2E2E2E2E2E2E2E2E2E2E2E2E2E2E2E2E2F5E2E2E2E2E2E2E2E2E2E2E2E2E2E2E2E2E2E2E2E2E2E2E2E2E2E2E2F5F5E2E2E2E2E2E2E2
310
E2E2E2E2E2E2E2E2E2E2E2E2E2E2E2E2E2E2E2E2F5E2E2E2E2E2E2E2E2E2E2E2E2E2E2E2E2E2E2E2E2E2E2E2E2E2E2E2E2E2E2E2E2E2E2E2E2E2E2E2E2E2E2E2E2E2E2E2E2E2E2E2E2E2E2E2E2E2E2E2E2E2E2E2E2E2E2E2E2E2E2E2E2E2E2E2E2E2E2E2E2E2E2E2E2E2E2E2E2E2E2E2E2E2E2E2E2E2E2E2E2E2E2E2E2E2E2
310
E2E2E2E2E2E2E2E2E2E2E2E2E2E2E2E2F5E2E2E2E2E2E2E2E2E2E2E2E2E2E2E2E2E2E2E2E2E2E2E2E2E2E2E2F5F5E2E2E2E2E2E2E2E2E2E2E2F5E2E2E2E2E2E2E2E2E2E2E2E2E2E2E2F5E2E2E2E2E2E2E2E2E2E2E2E2E2E2E2E2E2E2E2E2E2E2E2E2E2E2E2E2E2E2E2E2E2E2E2E2E2E2E2E2E2E2E2E2E2E2E2E2E2E2E2E2E2
310
E2E2E2E2E2E2E2E2E2E2E2E2E2E2E2E2E2E2E2E2E2E2E2E2E2E2E2E2E2E2E2E2E2E2E2E2E2E2E2E2E2E2E2E2E2E2E2E2E2E2E2E2E2E2E2E2E2E2E2E2E2E2E2E2E2E2E2E2E2F5E2E2E2E2E2E2E2E2E2E2E2E2E2E2E2F5E2E2E2E2E2E2E2E2E2E2E2F5F5E2E2E2E2E2E2E2E2E2E2E2F5E2E2E2E2E2E2E2E2E2E2E2E2E2E2E2F5
310
E2E2E2E2E2E2E2E2E2E2E2E2E2E2E2E2E2E2E2E2E2E2E2E2E2E2E2E2E2E2E2E2E2E2E2E2E2E2E2E2E2E2E2E2E2E2E2E2E2E2E2E2E2E2E2E2E2E2E2E2E2E2E2E2E2E2E2E2E2E2E2E2E2E2E2E2E2E2E2E2E2E2E2E2E2E2E2E2E2E2E2E2E2E2E2E2E2E2E2E2E2E2E2E2E2E2E2E2E2E2E2E2E2E2E2E2E2E2E2E2E2E2F5E2E2E2E2
310
E2E2E2E2E2E2E2E2E2E2E2F5E2E2E2E2E2E2E2E2E2E2E2F5F5E2E2E2E2E2E2E2E2E2E2E2F5E2E2E2E2E2E2E2E2E2E2E2E2E2E2E2F5E2E2E2E2E2E2E2E2E2E2E2E2E2E2E2E2E2E2E2E2E2E2E2E2E2E2E2E2E2E2E2E2E2E2E2E2E2E2E2E2E2E2E2E2E2E2E2E2E2E2E2E2E2E2E2E2E2E2E2E2E2E2E2E2E2E2E2E2E2E2E2E2E2E2
310
E2E2E2E2E2E2E2E2E2E2E2E2E2E2E2E2E2E2E2E2E2E2E2E2E2E2E2E2E2E2E2E2E2E2E2E2E2E2E2E2E2E2E2E2E2E2E2E2F5E2E2E2E2E2E2E2E2E2E2E2E2E2E2E2F5E2E2E2E2E2E2E2E2E2E2E2F5F5E2E2E2E2E2E2E2E2E2E2E2F5E2E2E2E2E2E2E2E2E2E2E2E2E2E2E2F5E2E2E2E2E2E2E2E2E2E2E2E2E2E2E2E2E2E2E2E2E2
310
E2E2E2E2E2E2E2E2E2E2E2E2E2E2E2E2E2E2E2E2E2E2E2E2E2E2E2E2E2E2E2E2E2E2E2E2E2E2E2E2E2E2E2E2E2E2E2E2E2E2E2E2E2E2E2E2E2E2E2E2E2E2E2E2E2E2E2E2E2E2E2E2E2E2E2E2E2E2E2E2E2E2E2E2E2E2E2E2E2E2E2E2E2E2E2E2E2E2E2E2E2F5E2E2E2E2E2E2E2E2E2E2E2E2E2E2E2F5E2E2E2E2E2E2E2E2E2
310
E2E2F5F5E2E2E2E2E2E2E2E2E2E2E2F5E2E2E2E2E2E2E2E2E2E2E2E2E2E2E2F5E2E2E2E2E2E2E2E2E2E2E2E2E2E2E2E2E2E2E2E2E2E2E2E2E2E2E2E2E2E2E2E2E2E2E2E2E2E2E2E2E2E2E2E2E2E2E2E2E2E2E2E2E2E2E2E2E2E2E2E2E2E2E2E2E2E2E2E2E2E2E2E2E2E2E2E2E2E2E2E2E2E2E2E2E2E2E2E2E2E2E2E2E2E2E2
310
E2E2E2E2E2E2E2E2E2E2E2E2E2E2E2E2E2E2E2E2E2E2E2E2E2E2E2F5E2E2E2E2E2E2E2E2E2E2E2E2E2E2E2F5E2E2E2E2E2E2E2E2E2E2E2F5F5E2E2E2E2E2E2E2E2E2E2E2F5E2E2E2E2E2E2E2E2E2E2E2E2E2E2E2F5E2E2E2E2E2E2E2E2E2E2E2E2E2E2E2E2E2E2E2E2E2E2E2E2E2E2E2E2E2E2E2E2E2E2E2E2E2E2E2E2E2E2
310
E2E2E2E2E2E2E2E2E2E2E2E2E2E2E2E2E2E2E2E2E2E2E2E2E2E2E2E2E2E2E2E2E2E2E2E2E2E2E2E2E2E2E2E2E2E2E2E2E2E2E2E2E2E2E2E2E2E2E2E2E2E2E2E2E2E2E2E2E2E2E2E2E2E2E2E2E2E2E2E2F5E2E2E2E2E2E2E2E2E2E2E2E2E2E2E2F5E2E2E2E2E2E2E2E2E2E2E2F5F5E2E2E2E2E2E2E2E2E2E2E2F5E2E2E2E2E2
310
E2E2E2E2E2E2E2E2E2E2F5E2E2E2E2E2E2E2E2E2E2E2E2E2E2E2E2E2E2E2E2E2E2E2E2E2E2E2E2E2E2E2E2E2E2E2E2E2E2E2E2E2E2E2E2E2E2E2E2E2E2E2E2E2E2E2E2E2E2E2E2E2E2E2E2E2E2E2E2E2E2E2E2E2E2E2E2E2E2E2E2E2E2E2E2E2E2E2E2E2E2E2E2E2E2E2E2E2E2E2E2E2E2E2E2E2E2E2E2E2E2E2E2E2E2E2E2
310
E2E2E2E2E2E2F5E2E2E2E2E2E2E2E2E2E2E2E2E2E2E2F5E2E2E2E2E2E2E2E2E2E2E2F5F5E2E2E2E2E2E2E2E2E2E2E2F5E2E2E2E2E2E2E2E2E2E2E2E2E2E2E2F5E2E2E2E2E2E2E2E2E2E2E2E2E2E2E2E2E2E2E2E2E2E2E2E2E2E2E2E2E2E2E2E2E2E2E2E2E2E2E2E2E2E2E2E2E2E2E2E2E2E2E2E2E2E2E2E2E2E2E2E2E2E2E2
310
E2E2E2E2E2E2E2E2E2E2E2E2E2E2E2E2E2E2E2E2E2E2E2E2E2E2E2E2E2E2E2E2E2E2E2E2E2E2E2E2E2E2E2E2E2E2E2E2E2E2E2E2E2E2E2E2E2E2E2F5E2E2E2E2E2E2E2E2E2E2E2E2E2E2E2F5E2E2E2E2E2E2E2E2E2E2E2F5F5E2E2E2E2E2E2E2E2E2E2E2F5E2E2E2E2E2E2E2E2E2E2E2E2E2E2E2F5E2E2E2E2E2E2E2E2E2E2
310
E2E2E2E2E2E2E2E2E2E2E2E2E2E2E2E2E2E2E2E2E2E2E2E2E2E2E2E2E2E2E2E2E2E2E2E2E2E2E2E2E2E2E2E2E2E2E2E2E2E2E2E2E2E2E2E2E2E2E2E2E2E2E2E2E2E2E2E2E2E2E2E2E2E2E2E2E2E2E2E2E2E2E2E2E2E2E2E2E2E2E2E2E2E2E2E2E2E2E2E2E2E2E2E2E2E2E2E2E2E2E2E2F5E2E2E2E2E2E2E2E2E2E2E2E2E2E2
310
E2F5E2E2E2E2E2E2E2E2E2E2E2F5F5E2E2E2E2E2E2E2E2E2E2E2F5E2E2E2E2E2E2E2E2E2E2E2E2E2E2E2F5E2E2E2E2E2E2E2E2E2E2E2E2E2E2E2E2E2E2E2E2E2E2E2E2E2E2E2E2E2E2E2E2E2E2E2E2E2E2E2E2E2E2E2E2E2E2E2E2E2E2E2E2E2E2E2E2E2E2E2E2E2E2E2E2E2E2E2E2E2E2E2E2E2E2E2E2E2E2E2E2E2E2E2E2
310
E2E2E2E2E2E2E2E2E2E2E2E2E2E2E2E2E2E2E2E2E2E2E2E2E2E2E2E2E2E2E2E2E2E2E2E2E2E2F5E2E2E2E2E2E2E2E2E2E2E2E2E2E2E2F5E2E2E2E2E2E2E2E2E2E2E2F5F5E2E2E2E2E2E2E2E2E2E2E2F5E2E2E2E2E2E2E2E2E2E2E2E2E2E2E2F5E2E2E2E2E2E2E2E2E2E2E2E2E2E2E2E2E2E2E2E2E2E2E2E2E2E2E2E2E2E2E2
310
E2E2E2E2E2E2E2E2E2E2E2E2E2E2E2E2E2E2E2E2E2E2E2E2E2E2E2E2E2E2E2E2E2E2E2E2E2E2E2E2E2E2E2E2E2E2E2E2E2E2E2E2E2E2E2E2E2E2E2E2E2E2E2E2E2E2E2E2E2E2E2E2E2E2E2E2E2E2E2E2E2E2E2E2E2E2E2E2E2E2E2F5E2E2E2E2E2E2E2E2E2E2E2E2E2E2E2F5E2E2E2E2E2E2E2E2E2E2E2F5F5E2E2E2E2E2E2
310
E2E2E2E2E2F5E2E2E2E2E2E2E2E2E2E2E2E2E2E2E2F5E2E2E2E2E2E2E2E2E2E2E2E2E2E2E2E2E2E2E2E2E2E2E2E2E2E2E2E2E2E2E2E2E2E2E2E2E2E2E2E2E2E2E2E2E2E2E2E2E2E2E2E2E2E2E2E2E2E2E2E2E2E2E2E2E2E2E2E2E2E2E2E2E2E2E2E2E2E2E2E2E2E2E2E2E2E2E2E2E2E2E2E2E2E2E2E2E2E2E2E2E2E2E2E2E2
310
E2E2E2E2E2E2E2E2E2E2E2E2E2E2E2E2E2F5E2E2E2E2E2E2E2E2E2E2E2E2E2E2E2F5E2E2E2E2E2E2E2E2E2E2E2F5F5E2E2E2E2E2E2E2E2E2E2E2F5E2E2E2E2E2E2E2E2E2E2E2E2E2E2E2F5E2E2E2E2E2E2E2E2E2E2E2E2E2E2E2E2E2E2E2E2E2E2E2E2E2E2E2E2E2E2E2E2E2E2E2E2E2E2E2E2E2E2E2E2E2E2E2E2E2E2E2E2
310
E2E2E2E2E2E2E2E2E2E2E2E2E2E2E2E2E2E2E2E2E2E2E2E2E2E2E2E2E2E2E2E2E2E2E2E2E2E2E2E2E2E2E2E2E2E2E2E2E2E2E2E2E2E2E2E2E2E2E2E2E2E2E2E2E2E2E2E2E2E2F5E2E2E2E2E2E2E2E2E2E2E2E2E2E2E2F5E2E2E2E2E2E2E2E2E2E2E2F5F5E2E2E2E2E2E2E2E2E2E2E2F5E2E2E2E2E2E2E2E2E2E2E2E2E2E2E2
310
F5E2E2E2E2E2E2E2E2E2E2E2E2E2E2E2E2E2E2E2E2E2E2E2E2E2E2E2E2E2E2E2E2E2E2E2E2E2E2E2E2E2E2E2E2E2E2E2E2E2E2E2E2E2E2E2E2E2E2E2E2E2E2E2E2E2E2E2E2E2E2E2E2E2E2E2E2E2E2E2E2E2E2E2E2E2E2E2E2E2E2E2E2E2E2E2E2E2E2E2E2E2E2E2E2E2E2E2E2E2E2E2E2E2E2E2E2E2E2E2E2E2E2F5E2E2E2
310
E2E2E2E2E2E2E2E2E2E2E2E2F5E2E2E2E2E2E2E2E2E2E2E2F5F5E2E2E2E2E2E2E2E2E2E2E2F5E2E2E2E2E2E2E2E2E2E2E2E2E2E2E2F5E2E2E2E2E2E2E2E2E2E2E2E2E2E2E2E2E2E2E2E2E2E2E2E2E2E2E2E2E2E2E2E2E2E2E2E2E2E2E2E2E2E2E2E2E2E2E2E2E2E2E2E2E2E2E2E2E2E2E2E2E2E2E2E2E2E2E2E2E2E2E2E2E2
310
E2E2E2E2E2E2E2E2E2E2E2E2E2E2E2E2E2E2E2E2E2E2E2E2E2E2E2E2E2E2E2E2E2E2E2E2E2E2E2E2E2E2E2E2E2E2E2E2E2F5E2E2E2E2E2E2E2E2E2E2E2E2E2E2E2F5E2E2E2E2E2E2E2E2E2E2E2F5F5E2E2E2E2E2E2E2E2E2E2E2E2E2E2E2E2E2E2E2E2E2E2E2E2E2E2E2F5E2E2E2E2E2E2E2E2E2E2E2E2E2E2E2E2E2E2E2E2
310
E2E2E2E2E2E2E2E2E2E2E2E2E2E2E2E2E2E2E2E2E2E2E2E2E2E2E2E2E2E2E2E2E2E2E2E2E2E2E2E2E2E2E2E2E2E2E2E2E2E2E2E2E2E2E2E2E2E2E2E2E2E2E2E2E2E2E2E2E2E2E2E2E2E2E2E2E2E2E2E2E2E2E2E2E2E2E2E2E2E2E2E2E2E2E2E2E2E2E2E2E2E2F5E2E2E2E2E2E2E2E2E2E2E2E2E2E2E2E2E2E2E2E2E2E2E2E2
310
E2E2E2F5F5E2E2E2E2E2E2E2E2E2E2E2E2E2E2E2E2E2E2E2E2E2E2E2E2E2E2E2F5E2E2E2E2E2E2E2E2E2E2E2E2E2E2E2E2E2E2E2E2E2E2E2E2E2E2E2E2E2E2E2E2E2E2E2E2E2E2E2E2E2E2E2E2E2E2E2E2E2E2E2E2E2E2E2E2E2E2E2E2E2E2E2E2E2E2E2E2E2E2E2E2E2E2E2E2E2E2E2E2E2E2E2E2E2E2E2E2E2E2E2E2E2E2
310
E2E2E2E2E2E2E2E2E2E2E2E2E2E2E2E2E2E2E2E2E2E2E2E2E2E2E2E2F5E2E2E2E2E2E2E2E2E2E2E2E2E2E2E2E2E2E2E2E2E2E2E2E2E2E2E2F5F5E2E2E2E2E2E2E2E2E2E2E2E2E2E2E2E2E2E2E2E2E2E2E2E2E2E2E2F5E2E2E2E2E2E2E2E2E2E2E2E2E2E2E2E2E2E2E2E2E2E2E2E2E2E2E2E2E2E2E2E2E2E2E2E2E2E2E2E2E2
310
E2E2E2E2E2E2E2E2E2E2E2E2E2E2E2E2E2E2E2E2E2E2E2E2E2E2E2E2E2E2E2E2E2E2E2E2E2E2E2E2E2E2E2E2E2E2E2E2E2E2E2E2E2E2E2E2E2E2E2E2E2E2E2E2E2E2E2E2E2E2E2E2E2E2E2E2E2E2E2E2E2F5E2E2E2E2E2E2E2E2E2E2E2E2E2E2E2E2E2E2E2E2E2E2E2E2E2E2E2F5F5E2E2E2E2E2E2E2E2E2E2E2E2E2E2E2E2
310
E2E2E2E2E2E2E2E2E2E2E2F5F5F5F5F5F5F5F5F5F5F5F5F5F5F5F5F5F5F5F5F5F5F5F5F5F5F5F5F5F5F5F5F5F5F5F5F5F5F5F5F5F5F5F5F5F5F5F5F5F5F5F5F5F5F5F5F5F5F5F5F5F5F5F5F5F5F5F5F5F5F5F5F5F5F5F5F5F5F5F5F5F5F5F5F5F5F5F5F5F5F5F5F5F5F5F5F5F5F5F5F5F5F5F5F5F5F5F5F5F5F5F5F5F5F5F5
310
F5F5F5F5F5F5F5F5E2E2E2E2E2E2E2E2E2E2E2E2E2E2E2E2E2E2E2E2E2E2E2E2E2E2E2F5F5E2E2E2E2E2E2E2E2E2E2E2E2E2E2E2E2E2E2E2E2E2E2E2E2E2E2E2E2E2E2E2E2E2E2E2E2E2E2E2E2E2E2E2E2E2E2E2E2E2E2E2E2E2E2E2E2E2E2E2E2E2E2E2E2E2E2E2E2E2E2E2E2E2E2E2E2E2E2E2E2E2E2E2E2E2E2E2E2E2E2
310
E2E2E2E2E2E2E2E2E2E2E2E2E2E2E2E2E2E2E2E2E2E2E2E2E2E2E2E2E2E2E2E2E2E2E2E2E2E2E2E2E2E2E2E2E2E2E2E2E2E2E2E2E2E2E2E2E2E2E2E2E2E2E2E2E2E2E2E2E2E2E2E2E2E2E2E2E2E2E2E2E2E2E2E2E2E2E2E2F5F5E2E2E2E2E2E2E2E2E2E2E2E2E2E2E2E2E2E2E2E2E2E2E2E2E2E2E2E2E2E2E2E2E2E2E2E2E2
310
E2E2E2E2E2E2E2E2E2E2E2E2E2E2E2E2E2E2E2E2E2E2E2E2E2E2E2E2E2E2E2E2E2E2E2E2E2E2E2E2E2E2E2E2E2E2E2E2E2E2E2E2E2E2E2E2E2E2E2E2E2E2E2E2E2E2E2E2E2E2E2E2E2E2E2E2E2E2E2E2E2E2E2E2E2E2E2E2E2E2E2E2E2E2E2E2E2E2E2E2E2E2E2E2E2E2E2E2E2E2E2E2E2E2E2E2E2E2E2E2E2E2E2E2E2E2E2
310
E2E2E2E2E2E2E2E2E2E2E2E2E2E2F5F5E2E2E2E2E2E2E2E2E2E2E2E2E2E2E2E2E2E2E2E2E2E2E2E2E2E2E2E2E2E2E2E2E2E2E2E2E2E2E2E2E2E2E2E2E2E2E2E2E2E2E2E2E2E2E2E2E2E2E2E2E2E2E2E2E2E2E2E2E2E2E2E2E2E2E2E2E2E2E2E2E2E2E2E2E2E2E2E2E2E2E2E2E2E2E2E2E2E2E2E2E2E2E2E2E2E2E2E2E2E2E2
310
E2E2E2E2E2E2E2E2E2E2E2E2E2E2E2E2E2E2E2E2E2E2E2E2E2E2E2E2E2E2E2E2E2E2E2E2E2E2E2E2E2E2E2E2E2E2E2E2E2E2E2E2E2E2E2E2E2E2E2E2E2E2E2E2E2E2E2F5F5E2E2E2E2E2E2E2E2E2E2E2E2E2E2E2E2E2E2E2E2E2E2E2E2E2E2E2E2E2E2E2E2E2E2E2E2E2E2E2E2E2E2E2E2E2E2E2E2E2E2E2E2E2E2E2E2E2E2
310
E2E2E2E2E2E2E2E2E2E2E2E2E2E2E2E2E2E2E2E2E2E2E2E2E2E2E2E2E2E2E2E2E2E2E2E2E2E2E2E2E2E2E2E2E2E2E2E2E2E2E2E2E2E2E2E2E2E2E2E2E2E2E2E2E2E2E2E2E2E2E2E2E2E2E2E2E2E2E2E2E2E2E2E2E2E2E2E2E2E2E2E2E2E2E2E2E2E2E2E2E2E2E2E2E2E2E2E2E2E2E2E2E2E2E2E2E2E2E2E2F5F5E2E2E2E2E2
310
E2E2E2E2E2E2F5E2E2E2E2E2E2E2E2E2E2E2E2E2E2E2E2E2E2E2E2E2E2E2E2E2E2E2E2E2E2E2E2E2E2E2E2E2E2E2E2E2E2E2E2E2E2E2E2E2E2E2E2E2E2E2E2E2E2E2E2E2E2E2E2E2E2E2E2E2E2E2E2E2E2E2E2E2E2E2E2E2E2E2E2E2E2E2E2E2E2E2E2E2E2E2E2E2E2E2E2E2E2E2E2E2E2E2E2E2E2E2E2E2E2E2E2E2E2E2E2
310
E2E2E2E2E2E2E2E2E2E2E2E2E2E2E2E2E2E2E2E2E2E2E2E2E2E2E2E2E2E2E2E2E2E2F5E2E2E2E2E2E2E2E2E2E2E2F5F5E2E2E2E2E2E2E2E2E2E2E2F5E2E2E2E2E2E2E2E2E2E2E2E2E2E2E2E2E2E2E2E2E2E2E2E2E2E2E2E2E2E2E2E2E2E2E2E2E2E2E2E2E2E2E2E2E2E2E2E2E2E2E2E2E2E2E2E2E2E2E2E2E2E2E2E2E2E2E2
310
E2E2E2E2E2E2E2E2E2E2E2E2E2E2E2E2E2E2E2E2E2E2E2E2E2E2E2E2E2E2E2E2E2E2E2E2E2E2E2E2E2E2E2E2E2E2E2E2E2E2E2E2E2E2E2E2E2E2E2E2E2E2E2E2E2E2E2E2E2E2E2E2E2E2E2E2E2E2E2E2E2E2E2E2E2E2E2F5E2E2E2E2E2E2E2E2E2E2E2F5F5E2E2E2E2E2E2E2E2E2E2E2F5E2E2E2E2E2E2E2E2E2E2E2E2E2E2
310
E2E2E2E2E2E2E2E2E2E2E2E2E2E2E2E2E2E2E2E2E2E2E2E2E2E2E2E2E2E2E2E2E2E2E2E2E2E2E2E2E2E2E2E2E2E2E2E2E2E2E2E2E2E2E2E2E2E2E2E2E2E2E2E2E2E2E2E2E2E2E2E2E2E2E2E2E2E2E2E2E2E2E2E2E2E2E2E2E2E2E2E2E2E2E2E2E2E2E2E2E2E2E2E2E2E2E2E2E2E2E2E2E2E2E2E2E2E2E2E2E2E2E2E2E2E2E2
310
E2E2E2E2E2E2E2E2E2E2E2E2E2F5E2E2E2E2E2E2E2E2E2E2E2F5F5E2E2E2E2E2E2E2E2E2E2E2F5E2E2E2E2E2E2E2E2E2E2E2E2E2E2E2E2E2E2E2E2E2E2E2E2E2E2E2E2E2E2E2E2E2E2E2E2E2E2E2E2E2E2E2E2E2E2E2E2E2E2E2E2E2E2E2E2E2E2E2E2E2E2E2E2E2E2E2E2E2E2E2E2E2E2E2E2E2E2E2E2E2E2E2E2E2E2E2E2
310
E2E2E2E2E2E2E2E2E2E2E2E2E2E2E2E2E2E2E2E2E2E2E2E2E2E2E2E2E2E2E2E2E2E2E2E2E2E2E2E2E2E2E2E2E2E2E2E2E2E2E2E2E2E2E2E2E2E2E2E2E2E2E2E2E2E2F5E2E2E2E2E2E2E2E2E2E2E2F5F5E2E2E2E2E2E2E2E2E2E2E2F5E2E2E2E2E2E2E2E2E2E2E2E2E2E2E2E2E2E2E2E2E2E2E2E2E2E2E2E2E2E2E2E2E2E2E2
310
E2E2E2E2E2E2E2E2E2E2E2E2E2E2E2E2E2E2E2E2E2E2E2E2E2E2E2E2E2E2E2E2E2E2E2E2E2E2E2E2E2E2E2E2E2E2E2E2E2E2E2E2E2E2E2E2E2E2E2E2E2E2E2E2E2E2E2E2E2E2E2E2E2E2E2E2E2E2E2E2E2E2E2E2E2E2E2E2E2E2E2E2E2E2E2E2E2E2E2E2E2E2E2E2E2E2E2E2E2E2E2E2E2E2E2E2E2E2E2F5E2E2E2E2E2E2E2
310
E2E2E2E2F5F5E2E2E2E2E2E2E2E2E2E2E2F5E2E2E2E2E2E2E2E2E2E2E2E2E2E2E2E2E2E2E2E2E2E2E2E2E2E2E2E2E2E2E2E2E2E2E2E2E2E2E2E2E2E2E2E2E2E2E2E2E2E2E2E2E2E2E2E2E2E2E2E2E2E2E2E2E2E2E2E2E2E2E2E2E2E2E2E2E2E2E2E2E2E2E2E2E2E2E2E2E2E2E2E2E2E2E2E2E2E2E2E2E2E2E2E2E2E2E2E2E2
310
E2E2E2E2E2E2E2E2E2E2E2E2E2E2E2E2E2E2E2E2E2E2E2E2E2E2E2E2E2E2E2E2E2E2E2E2E2E2E2E2E2E2E2E2E2F5E2E2E2E2E2E2E2E2E2E2E2F5F5E2E2E2E2E2E2E2E2E2E2E2F5E2E2E2E2E2E2E2E2E2E2E2E2E2E2E2E2E2E2E2E2E2E2E2E2E2E2E2E2E2E2E2E2E2E2E2E2E2E2E2E2E2E2E2E2E2E2E2E2E2E2E2E2E2E2E2E2
310
E2E2E2E2E2E2E2E2E2E2E2E2E2E2E2E2E2E2E2E2E2E2E2E2E2E2E2E2E2E2E2E2E2E2E2E2E2E2E2E2E2E2E2E2E2E2E2E2E2E2E2E2E2E2E2E2E2E2E2E2E2E2E2E2E2E2E2E2E2E2E2E2E2E2E2E2E2E2E2E2E2E2E2E2E2E2E2E2E2E2E2E2E2E2E2E2E2E2F5E2E2E2E2E2E2E2E2E2E2E2F5F5E2E2E2E2E2E2E2E2E2E2E2F5F5F5F5
310
F5F5F5F5F5E2E2E2E2E2E2E2E2E2F5F5F5F5F5F5F5F5F5F5F5F5F5F5F5F5F5E2E2E2E2E2E2E2E2E2F5F5F5F5F5F5F5F5F5F5F5F5F5F5F5F5E2E2E2E2E2E2E2E2E2E2F5F5F5F5F5F5F5F5F5F5F5F5F5F5F5F5E2E2E2E2E2E2E2E2E2E2F5F5F5F5F5F5F5F5F5F5F5F5F5F5F5F5E2E2E2E2E2E2E2E2E2F5F5F5F5F5F5F5F5F5F5
310
F5F5F5F5F5F5F5E2E2E2E2E2E2E2E2E2F5F5F5F5F5F5F5F5F5E2E2E2E2E2E2E2E2E2E2E2F5F5E2E2E2E2E2E2E2E2E2E2E2E2E2E2E2E2E2E2E2E2E2E2E2E2E2E2E2E2E2E2E2E2E2E2E2E2E2E2E2E2E2E2E2E2E2E2E2E2E2E2E2E2E2E2E2E2E2E2E2E2E2E2E2E2E2E2E2E2E2E2E2E2E2E2E2E2E2E2E2E2E2E2E2E2E2E2E2E2E2
310
E2E2E2E2E2E2E2E2E2E2E2E2E2E2E2E2E2E2E2E2E2E2E2E2E2E2E2E2E2E2E2E2E2E2E2E2E2E2E2E2E2E2E2E2E2E2E2E2E2E2E2E2E2E2E2E2E2E2E2E2E2E2E2E2E2E2E2E2E2E2E2E2E2E2E2E2E2E2E2E2E2E2E2E2E2E2E2E2E2F5F5E2E2E2E2E2E2E2E2E2E2E2E2E2E2E2E2E2E2E2E2E2E2E2E2E2E2E2E2E2E2E2E2E2E2E2E2
310
E2E2E2E2E2E2E2E2E2E2E2E2E2E2E2E2E2E2E2E2E2E2E2E2E2E2E2E2E2E2E2E2E2E2E2E2E2E2E2E2E2E2E2E2E2E2E2E2E2E2E2E2E2E2E2E2E2E2E2E2E2E2E2E2E2E2E2E2E2E2E2E2E2E2E2E2E2E2E2E2E2E2E2E2E2E2E2E2E2E2E2E2E2E2E2E2E2E2E2E2E2E2E2E2E2E2E2E2E2E2E2E2E2E2E2E2E2E2E2E2E2E2E2E2E2E2E2
310
E2E2E2E2E2E2E2E2E2E2E2E2E2E2E2F5F5E2E2E2E2E2E2E2E2E2E2E2E2E2E2E2E2E2E2E2E2E2E2E2E2E2E2E2E2E2E2E2E2E2E2E2E2E2E2E2E2E2E2E2E2E2E2E2E2E2E2E2E2E2E2E2E2E2E2E2E2E2E2E2E2E2E2E2E2E2E2E2E2E2E2E2E2E2E2E2E2E2E2E2E2E2E2E2E2E2E2E2E2E2E2E2E2E2E2E2E2E2E2E2E2E2E2E2E2E2E2
310
E2E2E2E2E2E2E2E2E2E2E2E2E2E2E2E2E2E2E2E2E2E2E2E2E2E2E2E2E2E2E2E2E2E2E2E2E2E2E2E2E2E2E2E2E2E2E2E2E2E2E2E2E2E2E2E2E2E2E2E2E2E2E2E2E2E2E2E2F5F5F5F5F5F5F5F5F5F5F5F5F5F5F5F5F5F5F5F5F5F5F5F5F5F5F5F5F5F5F5F5F5F5F5F5F5F5F5F5F5F5F5F5F5F5F5F5F5F5F5F5F5F5F5F5F5F5F5
310
F5F5F5F5F5F5F5F5F5F5F5F5F5F5F5F5F5F5F5F5F5F5F5F5F5F5F5F5F5F5F5F5F5F5F5F5F5F5F5F5F5F5F5F5F5F5F5F5F5F5F5F5F5F5F5F5F5F5F5F5F5F5F5F5F5F5F5F5F5F5F5F5F5F5F5F5F5F5F5F5F5F5F5F5F5F5F5F5F5F5F5F5F5F5F5F5F5F5F5F5F5F5F5F5F5F5F5F5F5F5F5F5F5F5F5F5F5F5F5F5F5F5EFEFEFEFEF
310
EFEFEFEFEFEFEFEFEFEFEFEFEFEFEFEFEFEFEFEFEFEFEFEFEFEFEFEFEFEFEFEFEFEFEFEFEFEFEFEFEFEFEFEFEFEFEFEFEFEFEFEFEFEFEFEFEFEFEFEFEFEFEFEFEFEFEFEFEFEFEFEFEFEFEFEFEFEFEFEFEFEFEFEFEFEFEFEFEFEFEFEFEFEFEFEFEFEFEFEFEFEFEFEFEFEFEFEFEFEFEFEFEFEFEFEFEFEFEFEFEFEFEFEFEFEFEF
310
EFEFEFEFEFEFEFEFEFEFEFEFEFEFEFEFEFEFEFEFEFEFEFEFEFEFEFEFEFEFEFEFEFEFEFEFEFEFEFEFEFEFEFEFEFEFEFEF
  0
ENDSEC
  0
EOF
