  0
SECTION
  2
HEADER
  9
$ACADVER
  1
AC1021
  9
$ACADMAINTVER
 70
     1
  9
$DWGCODEPAGE
  3
ANSI_1252
  9
$LASTSAVEDBY
  1
BJB
  9
$INSBASE
 10
-6441.848698920316
 20
-21807.97820098807
 30
0.0
  9
$EXTMIN
 10
-8120.299729507825
 20
-21808.38693898884
 30
-0.0000000000000058
  9
$EXTMAX
 10
-6317.451816559508
 20
-20472.61212480938
 30
0.0000000000000104
  9
$LIMMIN
 10
0.0
 20
0.0
  9
$LIMMAX
 10
420.0
 20
297.0
  9
$ORTHOMODE
 70
     1
  9
$REGENMODE
 70
     1
  9
$FILLMODE
 70
     1
  9
$QTEXTMODE
 70
     0
  9
$MIRRTEXT
 70
     0
  9
$LTSCALE
 40
100.0
  9
$ATTMODE
 70
     1
  9
$TEXTSIZE
 40
536.1425458167722
  9
$TRACEWID
 40
1.0
  9
$TEXTSTYLE
  7
Standard
  9
$CLAYER
  8
Access .3
  9
$CELTYPE
  6
ByLayer
  9
$CECOLOR
 62
   256
  9
$CELTSCALE
 40
1.0
  9
$DISPSILH
 70
     0
  9
$DIMSCALE
 40
10.0
  9
$DIMASZ
 40
2.5
  9
$DIMEXO
 40
1.0
  9
$DIMDLI
 40
1.0
  9
$DIMRND
 40
0.0
  9
$DIMDLE
 40
2.0
  9
$DIMEXE
 40
2.0
  9
$DIMTP
 40
0.0
  9
$DIMTM
 40
0.0
  9
$DIMTXT
 40
1.8
  9
$DIMCEN
 40
2.5
  9
$DIMTSZ
 40
0.0
  9
$DIMTOL
 70
     0
  9
$DIMLIM
 70
     0
  9
$DIMTIH
 70
     0
  9
$DIMTOH
 70
     0
  9
$DIMSE1
 70
     0
  9
$DIMSE2
 70
     0
  9
$DIMTAD
 70
     1
  9
$DIMZIN
 70
     9
  9
$DIMBLK
  1

  9
$DIMASO
 70
     1
  9
$DIMSHO
 70
     1
  9
$DIMPOST
  1

  9
$DIMAPOST
  1

  9
$DIMALT
 70
     0
  9
$DIMALTD
 70
     4
  9
$DIMALTF
 40
0.0394
  9
$DIMLFAC
 40
1.0
  9
$DIMTOFL
 70
     0
  9
$DIMTVP
 40
0.0
  9
$DIMTIX
 70
     0
  9
$DIMSOXD
 70
     0
  9
$DIMSAH
 70
     1
  9
$DIMBLK1
  1
ARCHTICK
  9
$DIMBLK2
  1
ARCHTICK
  9
$DIMSTYLE
  2
Access
  9
$DIMCLRD
 70
   256
  9
$DIMCLRE
 70
   256
  9
$DIMCLRT
 70
   256
  9
$DIMTFAC
 40
1.0
  9
$DIMGAP
 40
0.9
  9
$DIMJUST
 70
     0
  9
$DIMSD1
 70
     0
  9
$DIMSD2
 70
     0
  9
$DIMTOLJ
 70
     1
  9
$DIMTZIN
 70
     0
  9
$DIMALTZ
 70
     0
  9
$DIMALTTZ
 70
     0
  9
$DIMUPT
 70
     0
  9
$DIMDEC
 70
     0
  9
$DIMTDEC
 70
     0
  9
$DIMALTU
 70
     8
  9
$DIMALTTD
 70
     4
  9
$DIMTXSTY
  7
Standard
  9
$DIMAUNIT
 70
     0
  9
$DIMADEC
 70
     0
  9
$DIMALTRND
 40
0.0
  9
$DIMAZIN
 70
     0
  9
$DIMDSEP
 70
    46
  9
$DIMATFIT
 70
     3
  9
$DIMFRAC
 70
     0
  9
$DIMLDRBLK
  1

  9
$DIMLUNIT
 70
     2
  9
$DIMLWD
 70
    -2
  9
$DIMLWE
 70
    -2
  9
$DIMTMOVE
 70
     2
  9
$DIMFXL
 40
2.0
  9
$DIMFXLON
 70
     0
  9
$DIMJOGANG
 40
1.570796326794896
  9
$DIMTFILL
 70
     0
  9
$DIMTFILLCLR
 70
     0
  9
$DIMARCSYM
 70
     0
  9
$DIMLTYPE
  6

  9
$DIMLTEX1
  6

  9
$DIMLTEX2
  6

  9
$LUNITS
 70
     2
  9
$LUPREC
 70
     4
  9
$SKETCHINC
 40
1.0
  9
$FILLETRAD
 40
0.0
  9
$AUNITS
 70
     0
  9
$AUPREC
 70
     0
  9
$MENU
  1
.
  9
$ELEVATION
 40
0.0
  9
$PELEVATION
 40
0.0
  9
$THICKNESS
 40
0.0
  9
$LIMCHECK
 70
     0
  9
$CHAMFERA
 40
0.0
  9
$CHAMFERB
 40
0.0
  9
$CHAMFERC
 40
0.0
  9
$CHAMFERD
 40
0.0
  9
$SKPOLY
 70
     0
  9
$TDCREATE
 40
2453960.715830440
  9
$TDUCREATE
 40
2453960.299163773
  9
$TDUPDATE
 40
2455343.869659248
  9
$TDUUPDATE
 40
2455343.452992581
  9
$TDINDWG
 40
0.5893818866
  9
$TDUSRTIMER
 40
0.5893818866
  9
$USRTIMER
 70
     1
  9
$ANGBASE
 50
0.0
  9
$ANGDIR
 70
     0
  9
$PDMODE
 70
     0
  9
$PDSIZE
 40
0.0
  9
$PLINEWID
 40
0.0
  9
$SPLFRAME
 70
     0
  9
$SPLINETYPE
 70
     6
  9
$SPLINESEGS
 70
     8
  9
$HANDSEED
  5
205
  9
$SURFTAB1
 70
     6
  9
$SURFTAB2
 70
     6
  9
$SURFTYPE
 70
     6
  9
$SURFU
 70
     6
  9
$SURFV
 70
     6
  9
$UCSBASE
  2

  9
$UCSNAME
  2

  9
$UCSORG
 10
0.0
 20
0.0
 30
0.0
  9
$UCSXDIR
 10
1.0
 20
0.0
 30
0.0
  9
$UCSYDIR
 10
0.0
 20
1.0
 30
0.0
  9
$UCSORTHOREF
  2

  9
$UCSORTHOVIEW
 70
     0
  9
$UCSORGTOP
 10
0.0
 20
0.0
 30
0.0
  9
$UCSORGBOTTOM
 10
0.0
 20
0.0
 30
0.0
  9
$UCSORGLEFT
 10
0.0
 20
0.0
 30
0.0
  9
$UCSORGRIGHT
 10
0.0
 20
0.0
 30
0.0
  9
$UCSORGFRONT
 10
0.0
 20
0.0
 30
0.0
  9
$UCSORGBACK
 10
0.0
 20
0.0
 30
0.0
  9
$PUCSBASE
  2

  9
$PUCSNAME
  2

  9
$PUCSORG
 10
0.0
 20
0.0
 30
0.0
  9
$PUCSXDIR
 10
1.0
 20
0.0
 30
0.0
  9
$PUCSYDIR
 10
0.0
 20
1.0
 30
0.0
  9
$PUCSORTHOREF
  2

  9
$PUCSORTHOVIEW
 70
     0
  9
$PUCSORGTOP
 10
0.0
 20
0.0
 30
0.0
  9
$PUCSORGBOTTOM
 10
0.0
 20
0.0
 30
0.0
  9
$PUCSORGLEFT
 10
0.0
 20
0.0
 30
0.0
  9
$PUCSORGRIGHT
 10
0.0
 20
0.0
 30
0.0
  9
$PUCSORGFRONT
 10
0.0
 20
0.0
 30
0.0
  9
$PUCSORGBACK
 10
0.0
 20
0.0
 30
0.0
  9
$USERI1
 70
     0
  9
$USERI2
 70
     0
  9
$USERI3
 70
     0
  9
$USERI4
 70
     0
  9
$USERI5
 70
     0
  9
$USERR1
 40
0.0
  9
$USERR2
 40
0.0
  9
$USERR3
 40
0.0
  9
$USERR4
 40
0.0
  9
$USERR5
 40
0.0
  9
$WORLDVIEW
 70
     1
  9
$SHADEDGE
 70
     3
  9
$SHADEDIF
 70
    70
  9
$TILEMODE
 70
     1
  9
$MAXACTVP
 70
    64
  9
$PINSBASE
 10
0.0
 20
0.0
 30
0.0
  9
$PLIMCHECK
 70
     0
  9
$PEXTMIN
 10
25.69999999999999
 20
19.5
 30
0.0
  9
$PEXTMAX
 10
231.3
 20
175.5
 30
0.0
  9
$PLIMMIN
 10
-20.0
 20
-7.5
  9
$PLIMMAX
 10
277.0
 20
202.5
  9
$UNITMODE
 70
     0
  9
$VISRETAIN
 70
     1
  9
$PLINEGEN
 70
     0
  9
$PSLTSCALE
 70
     1
  9
$TREEDEPTH
 70
  3020
  9
$CMLSTYLE
  2
Standard
  9
$CMLJUST
 70
     0
  9
$CMLSCALE
 40
20.0
  9
$PROXYGRAPHICS
 70
     1
  9
$MEASUREMENT
 70
     1
  9
$CELWEIGHT
370
    -1
  9
$ENDCAPS
280
     0
  9
$JOINSTYLE
280
     0
  9
$LWDISPLAY
290
     0
  9
$INSUNITS
 70
     4
  9
$HYPERLINKBASE
  1

  9
$STYLESHEET
  1
LCG Normal.ctb
  9
$XEDIT
290
     1
  9
$CEPSNTYPE
380
     0
  9
$PSTYLEMODE
290
     1
  9
$FINGERPRINTGUID
  2
{2E8267BB-2DED-410A-B327-E271465656B1}
  9
$VERSIONGUID
  2
{456EDCB4-F870-4C99-9758-BB3F1E76D345}
  9
$EXTNAMES
290
     1
  9
$PSVPSCALE
 40
0.0
  9
$OLESTARTUP
290
     0
  9
$SORTENTS
280
   127
  9
$INDEXCTL
280
     0
  9
$HIDETEXT
280
     1
  9
$XCLIPFRAME
290
     0
  9
$HALOGAP
280
     0
  9
$OBSCOLOR
 70
   257
  9
$OBSLTYPE
280
     0
  9
$INTERSECTIONDISPLAY
280
     0
  9
$INTERSECTIONCOLOR
 70
   257
  9
$DIMASSOC
280
     2
  9
$PROJECTNAME
  1

  9
$CAMERADISPLAY
290
     0
  9
$LENSLENGTH
 40
50.0
  9
$CAMERAHEIGHT
 40
0.0
  9
$STEPSPERSEC
 40
2.0
  9
$STEPSIZE
 40
6.0
  9
$3DDWFPREC
 40
2.0
  9
$PSOLWIDTH
 40
0.25
  9
$PSOLHEIGHT
 40
4.0
  9
$LOFTANG1
 40
1.570796326794896
  9
$LOFTANG2
 40
1.570796326794896
  9
$LOFTMAG1
 40
0.0
  9
$LOFTMAG2
 40
0.0
  9
$LOFTPARAM
 70
     7
  9
$LOFTNORMALS
280
     1
  9
$LATITUDE
 40
37.795
  9
$LONGITUDE
 40
-122.394
  9
$NORTHDIRECTION
 40
0.0
  9
$TIMEZONE
 70
 -8000
  9
$LIGHTGLYPHDISPLAY
280
     1
  9
$TILEMODELIGHTSYNCH
280
     1
  9
$CMATERIAL
347
39
  9
$SOLIDHIST
280
     1
  9
$SHOWHIST
280
     1
  9
$DWFFRAME
280
     2
  9
$DGNFRAME
280
     0
  9
$REALWORLDSCALE
290
     1
  9
$INTERFERECOLOR
 62
     1
  9
$INTERFEREOBJVS
345
41
  9
$INTERFEREVPVS
346
42
  9
$CSHADOW
280
     0
  9
$SHADOWPLANELOCATION
 40
0.0
  0
ENDSEC
  0
SECTION
  2
CLASSES
  0
CLASS
  1
ACDBDICTIONARYWDFLT
  2
AcDbDictionaryWithDefault
  3
ObjectDBX Classes
 90
        0
 91
        1
280
     0
281
     0
  0
CLASS
  1
DICTIONARYVAR
  2
AcDbDictionaryVar
  3
ObjectDBX Classes
 90
        0
 91
        1
280
     0
281
     0
  0
CLASS
  1
TABLESTYLE
  2
AcDbTableStyle
  3
ObjectDBX Classes
 90
     4095
 91
        1
280
     0
281
     0
  0
CLASS
  1
PLOTSETTINGS
  2
AcDbPlotSettings
  3
ObjectDBX Classes
 90
        0
 91
        0
280
     0
281
     0
  0
CLASS
  1
SORTENTSTABLE
  2
AcDbSortentsTable
  3
ObjectDBX Classes
 90
        0
 91
        1
280
     0
281
     0
  0
CLASS
  1
DIMASSOC
  2
AcDbDimAssoc
  3
"AcDbDimAssoc|Product Desc:     AcDim ARX App For Dimension|Company:          Autodesk, Inc.|WEB Address:      www.autodesk.com"
 90
        0
 91
        0
280
     0
281
     0
  0
CLASS
  1
SPATIAL_FILTER
  2
AcDbSpatialFilter
  3
ObjectDBX Classes
 90
        0
 91
        0
280
     0
281
     0
  0
CLASS
  1
MATERIAL
  2
AcDbMaterial
  3
ObjectDBX Classes
 90
     1024
 91
        3
280
     0
281
     0
  0
CLASS
  1
VISUALSTYLE
  2
AcDbVisualStyle
  3
ObjectDBX Classes
 90
     4095
 91
       16
280
     0
281
     0
  0
CLASS
  1
SOLID_BACKGROUND
  2
AcDbSolidBackground
  3
SCENEOE
 90
     4095
 91
        0
280
     0
281
     0
  0
CLASS
  1
NPOCOLLECTION
  2
AcDbImpNonPersistentObjectsCollection
  3
ObjectDBX Classes
 90
     1153
 91
        0
280
     0
281
     0
  0
ENDSEC
  0
SECTION
  2
TABLES
  0
TABLE
  2
VPORT
  5
25
102
{ACAD_XDICTIONARY
360
29
102
}
330
0
100
AcDbSymbolTable
 70
     1
  0
VPORT
  5
26
330
25
100
AcDbSymbolTableRecord
100
AcDbViewportTableRecord
  2
*Active
 70
     0
 10
0.0
 20
0.0
 11
1.0
 21
1.0
 12
-7218.875773033666
 22
-21140.49953189911
 13
0.0
 23
0.0
 14
10.0
 24
10.0
 15
10.0
 25
10.0
 16
0.0
 26
0.0
 36
1.0
 17
0.0
 27
0.0
 37
0.0
 40
1352.334006090779
 41
2.494824016563146
 42
50.0
 43
0.0
 44
0.0
 50
0.0
 51
0.0
 71
     0
 72
  1000
 73
     1
 74
     3
 75
     0
 76
     0
 77
     0
 78
     0
281
     0
 65
     1
110
0.0
120
0.0
130
0.0
111
1.0
121
0.0
131
0.0
112
0.0
122
1.0
132
0.0
 79
     0
146
0.0
348
27
 60
     3
 61
     5
292
     1
282
     1
141
0.0
142
0.0
 63
   250
421
  3355443
  0
ENDTAB
  0
TABLE
  2
LTYPE
  5
20
330
0
100
AcDbSymbolTable
 70
     4
  0
LTYPE
  5
21
330
20
100
AcDbSymbolTableRecord
100
AcDbLinetypeTableRecord
  2
ByBlock
 70
     0
  3

 72
    65
 73
     0
 40
0.0
  0
LTYPE
  5
22
330
20
100
AcDbSymbolTableRecord
100
AcDbLinetypeTableRecord
  2
ByLayer
 70
     0
  3

 72
    65
 73
     0
 40
0.0
  0
LTYPE
  5
C
330
20
100
AcDbSymbolTableRecord
100
AcDbLinetypeTableRecord
  2
Continuous
 70
     0
  3
Solid line
 72
    65
 73
     0
 40
0.0
  0
LTYPE
  5
182
330
20
100
AcDbSymbolTableRecord
100
AcDbLinetypeTableRecord
  2
CENTER
 70
     0
  3
Center ____ _ ____ _ ____ _ ____ _ ____ _ ____
 72
    65
 73
     4
 40
2.0
 49
1.25
 74
     0
 49
-0.25
 74
     0
 49
0.25
 74
     0
 49
-0.25
 74
     0
  0
LTYPE
  5
5F
330
20
100
AcDbSymbolTableRecord
100
AcDbLinetypeTableRecord
  2
DASHED
 70
     0
  3
Dashed __ __ __ __ __ __ __ __ __ __ __ __ __ _
 72
    65
 73
     2
 40
0.75
 49
0.5
 74
     0
 49
-0.25
 74
     0
  0
LTYPE
  5
4F
330
20
100
AcDbSymbolTableRecord
100
AcDbLinetypeTableRecord
  2
HIDDEN
 70
     0
  3
Hidden __ __ __ __ __ __ __ __ __ __ __ __ __ _
 72
    65
 73
     2
 40
0.375
 49
0.25
 74
     0
 49
-0.125
 74
     0
  0
ENDTAB
  0
TABLE
  2
LAYER
  5
17
102
{ACAD_XDICTIONARY
360
18
102
}
330
0
100
AcDbSymbolTable
 70
     7
  0
LAYER
  5
6
330
17
100
AcDbSymbolTableRecord
100
AcDbLayerTableRecord
  2
0
 70
     0
 62
     7
  6
Continuous
370
    -3
390
7
347
A
  0
LAYER
  5
4E
330
17
100
AcDbSymbolTableRecord
100
AcDbLayerTableRecord
  2
Access .1
 70
     0
 62
     1
  6
Continuous
370
    -3
390
7
347
A
1001
AcAecLayerStandard
1000

1000

  0
LAYER
  5
48
330
17
100
AcDbSymbolTableRecord
100
AcDbLayerTableRecord
  2
Access .2
 70
     0
 62
     2
  6
Continuous
370
    -3
390
7
347
A
1001
AcAecLayerStandard
1000

1000

  0
LAYER
  5
3D
330
17
100
AcDbSymbolTableRecord
100
AcDbLayerTableRecord
  2
Access .3
 70
     0
 62
     3
  6
Continuous
370
    -3
390
7
347
A
1001
AcAecLayerStandard
1000

1000

  0
LAYER
  5
5E
330
17
100
AcDbSymbolTableRecord
100
AcDbLayerTableRecord
  2
Access Circulation
 70
     0
 62
     6
  6
DASHED
370
    -3
390
7
347
A
1001
AcAecLayerStandard
1000

1000

  0
LAYER
  5
181
330
17
100
AcDbSymbolTableRecord
100
AcDbLayerTableRecord
  2
Access Grid
 70
     0
 62
     8
  6
CENTER
370
    -3
390
7
347
A
1001
AcAecLayerStandard
1000

1000

  0
LAYER
  5
46
330
17
100
AcDbSymbolTableRecord
100
AcDbLayerTableRecord
  2
Dimensions
 70
     0
 62
     2
  6
Continuous
370
    -3
390
7
347
A
  0
ENDTAB
  0
TABLE
  2
STYLE
  5
1D
330
0
100
AcDbSymbolTable
 70
     1
  0
STYLE
  5
1E
330
1D
100
AcDbSymbolTableRecord
100
AcDbTextStyleTableRecord
  2
Standard
 70
     0
 40
0.0
 41
1.0
 50
0.0
 71
     0
 42
536.1425458167722
  3
ARIALN.TTF
  4

1001
ACAD
1000
Arial Narrow
1071
       34
  0
ENDTAB
  0
TABLE
  2
VIEW
  5
23
330
0
100
AcDbSymbolTable
 70
     0
  0
ENDTAB
  0
TABLE
  2
UCS
  5
24
330
0
100
AcDbSymbolTable
 70
     0
  0
ENDTAB
  0
TABLE
  2
APPID
  5
2A
330
0
100
AcDbSymbolTable
 70
     5
  0
APPID
  5
1C
330
2A
100
AcDbSymbolTableRecord
100
AcDbRegAppTableRecord
  2
ACAD
 70
     0
  0
APPID
  5
10
330
2A
100
AcDbSymbolTableRecord
100
AcDbRegAppTableRecord
  2
ACAD_PSEXT
 70
     0
  0
APPID
  5
3E
330
2A
100
AcDbSymbolTableRecord
100
AcDbRegAppTableRecord
  2
AcAecLayerStandard
 70
     0
  0
APPID
  5
34
330
2A
100
AcDbSymbolTableRecord
100
AcDbRegAppTableRecord
  2
ACAD_DSTYLE_DIMJOGGED_JOGANGLE_SYMBOL
 70
     0
  0
APPID
  5
191
330
2A
100
AcDbSymbolTableRecord
100
AcDbRegAppTableRecord
  2
ACAD_DSTYLE_DIMEXT_LENGTH
 70
     0
  0
ENDTAB
  0
TABLE
  2
DIMSTYLE
  5
2B
330
0
100
AcDbSymbolTable
 70
     1
100
AcDbDimStyleTable
 71
     1
340
2C
  0
DIMSTYLE
105
2C
330
2B
100
AcDbSymbolTableRecord
100
AcDbDimStyleTableRecord
  2
Access
 70
     0
 40
10.0
 41
2.5
 42
1.0
 43
1.0
 44
2.0
 46
2.0
 49
2.0
 50
90.0
 73
     0
 74
     0
 77
     1
 78
     9
140
1.8
141
2.5
143
0.0394
147
0.9
171
     4
173
     1
176
   256
177
   256
178
   256
271
     0
272
     0
273
     8
274
     4
279
     2
340
1E
343
2D
344
2D
1001
ACAD_DSTYLE_DIMJOGGED_JOGANGLE_SYMBOL
1070
   384
1040
1.570796326794896
  0
ENDTAB
  0
TABLE
  2
BLOCK_RECORD
  5
1
330
0
100
AcDbSymbolTable
 70
     1
  0
BLOCK_RECORD
  5
2
102
{ACAD_XDICTIONARY
360
3
102
}
330
1
100
AcDbSymbolTableRecord
100
AcDbBlockTableRecord
  2
*Model_Space
340
E
 70
     0
280
     1
281
     0
  0
BLOCK_RECORD
  5
11
330
1
100
AcDbSymbolTableRecord
100
AcDbBlockTableRecord
  2
*Paper_Space
340
14
 70
     0
280
     1
281
     0
  0
BLOCK_RECORD
  5
2D
330
1
100
AcDbSymbolTableRecord
100
AcDbBlockTableRecord
  2
_ARCHTICK
340
0
 70
     0
280
     1
281
     0
  0
ENDTAB
  0
ENDSEC
  0
SECTION
  2
BLOCKS
  0
BLOCK
  5
5
330
2
100
AcDbEntity
  8
0
100
AcDbBlockBegin
  2
*Model_Space
 70
     0
 10
0.0
 20
0.0
 30
0.0
  3
*Model_Space
  1

  0
ENDBLK
  5
D
330
2
100
AcDbEntity
  8
0
100
AcDbBlockEnd
  0
BLOCK
  5
12
330
11
100
AcDbEntity
 67
     1
  8
0
100
AcDbBlockBegin
  2
*Paper_Space
 70
     0
 10
0.0
 20
0.0
 30
0.0
  3
*Paper_Space
  1

  0
ENDBLK
  5
13
330
11
100
AcDbEntity
 67
     1
  8
0
100
AcDbBlockEnd
  0
BLOCK
  5
2E
330
2D
100
AcDbEntity
  8
0
100
AcDbBlockBegin
  2
_ARCHTICK
 70
     0
 10
0.0
 20
0.0
 30
0.0
  3
_ARCHTICK
  1

  0
POLYLINE
  5
2F
330
2D
100
AcDbEntity
  8
0
  6
ByBlock
 62
     0
100
AcDb2dPolyline
 66
     1
 10
0.0
 20
0.0
 30
0.0
 40
0.15
 41
0.15
  0
VERTEX
  5
30
330
2F
100
AcDbEntity
  8
0
  6
ByBlock
 62
     0
100
AcDbVertex
100
AcDb2dVertex
 10
-0.5
 20
-0.5
 30
0.0
  0
VERTEX
  5
31
330
2F
100
AcDbEntity
  8
0
  6
ByBlock
 62
     0
100
AcDbVertex
100
AcDb2dVertex
 10
0.5
 20
0.5
 30
0.0
  0
SEQEND
  5
32
330
2F
100
AcDbEntity
  8
0
  6
ByBlock
 62
     0
  0
ENDBLK
  5
33
330
2D
100
AcDbEntity
  8
0
100
AcDbBlockEnd
  0
ENDSEC
  0
SECTION
  2
ENTITIES
  0
LINE
  5
43
330
2
100
AcDbEntity
  8
Access .3
100
AcDbLine
 10
-8119.774161621373
 20
-21807.97820098807
 30
0.0
 11
-6441.848698920316
 21
-21807.97820098807
 31
0.0
  0
LINE
  5
44
330
2
100
AcDbEntity
  8
Access .3
100
AcDbLine
 10
-6441.848698920317
 20
-21807.97820098807
 30
0.0
 11
-6441.848698920317
 21
-20473.50555663259
 31
0.0
  0
LINE
  5
45
330
2
100
AcDbEntity
  8
Dimensions
100
AcDbLine
 10
-6449.848698920317
 20
-21061.47820098807
 30
0.0
 11
-6449.848698920317
 21
-20986.47820098807
 31
0.0
  0
LINE
  5
47
330
2
100
AcDbEntity
  8
Access .2
100
AcDbLine
 10
-6507.848698920316
 20
-21007.97820098807
 30
0.0
 11
-6449.848698920317
 21
-21007.97820098807
 31
0.0
  0
LINE
  5
49
330
2
100
AcDbEntity
  8
Access .2
100
AcDbLine
 10
-6507.848698920316
 20
-21039.97820098807
 30
0.0
 11
-6449.848698920317
 21
-21039.97820098807
 31
0.0
  0
ARC
  5
4A
330
2
100
AcDbEntity
  8
Access .2
100
AcDbCircle
 10
-6507.848698920316
 20
-21023.97820098807
 30
0.0
 40
16.0
100
AcDbArc
 50
90.0
 51
270.0
  0
LINE
  5
4B
330
2
100
AcDbEntity
  8
Access .2
100
AcDbLine
 10
-6441.848698920317
 20
-20986.47820098807
 30
0.0
 11
-6449.848698920317
 21
-20986.47820098807
 31
0.0
  0
LINE
  5
4C
330
2
100
AcDbEntity
  8
Access .2
100
AcDbLine
 10
-6441.848698920317
 20
-21061.47820098807
 30
0.0
 11
-6449.848698920317
 21
-21061.47820098807
 31
0.0
  0
ARC
  5
4D
330
2
100
AcDbEntity
  8
Access .1
  6
HIDDEN
100
AcDbCircle
 10
-6507.848698920316
 20
-21023.97820098807
 30
0.0
 40
16.0
100
AcDbArc
 50
270.0
 51
90.0
  0
LINE
  5
50
330
2
100
AcDbEntity
  8
Access .2
100
AcDbLine
 10
-6507.848698920316
 20
-21039.97820098807
 30
0.0
 11
-7357.993337867019
 21
-21039.97820098807
 31
0.0
  0
ARC
  5
51
330
2
100
AcDbEntity
  8
Access .2
100
AcDbCircle
 10
-7357.993337867019
 20
-20939.97820098807
 30
0.0
 40
100.0
100
AcDbArc
 50
240.000000000031
 51
270.0
  0
ARC
  5
52
330
2
100
AcDbEntity
  8
Access .2
100
AcDbCircle
 10
-7357.993337867019
 20
-20939.97820098807
 30
0.0
 40
68.0
100
AcDbArc
 50
240.000000000031
 51
270.0
  0
LINE
  5
53
330
2
100
AcDbEntity
  8
Access .2
100
AcDbLine
 10
-6507.848698920316
 20
-21007.97820098807
 30
0.0
 11
-7357.993337867019
 21
-21007.97820098807
 31
0.0
  0
LINE
  5
54
330
2
100
AcDbEntity
  8
Access .2
100
AcDbLine
 10
-7407.993337867019
 20
-21026.58074136652
 30
0.0
 11
-7984.575259140889
 21
-20693.69101390918
 31
0.0
  0
LINE
  5
55
330
2
100
AcDbEntity
  8
Access .2
100
AcDbLine
 10
-7391.993337867019
 20
-20998.86792844542
 30
0.0
 11
-7968.575259140887
 21
-20665.97820098807
 31
0.0
  0
ARC
  5
56
330
2
100
AcDbEntity
  8
Access .2
100
AcDbCircle
 10
-7976.575259140886
 20
-20679.83460744863
 30
0.0
 40
16.00000000000183
100
AcDbArc
 50
60.00000000003105
 51
240.000000000031
  0
ARC
  5
57
330
2
100
AcDbEntity
  8
Access .2
  6
HIDDEN
100
AcDbCircle
 10
-7976.575259140886
 20
-20679.83460744863
 30
0.0
 40
16.00000000000183
100
AcDbArc
 50
240.000000000031
 51
60.00000000003105
  0
ARC
  5
58
330
2
100
AcDbEntity
  8
Access .2
100
AcDbCircle
 10
-7976.575259140886
 20
-20679.83460744863
 30
0.0
 40
37.5
100
AcDbArc
 50
355.2562036616044
 51
304.7437963384214
  0
ARC
  5
59
330
2
100
AcDbEntity
  8
Access .2
100
AcDbCircle
 10
-6891.848698920317
 20
-21093.97820098807
 30
0.0
 40
9.5
100
AcDbArc
 50
180.0
 51
0.0
  0
ARC
  5
5A
330
2
100
AcDbEntity
  8
Access .2
100
AcDbCircle
 10
-6891.848698920317
 20
-21093.97820098807
 30
0.0
 40
37.5
100
AcDbArc
 50
104.6748497429032
 51
75.32515025709679
  0
LINE
  5
5B
330
2
100
AcDbEntity
  8
Access .2
100
AcDbLine
 10
-6901.348698920317
 20
-21093.97820098807
 30
0.0
 11
-6901.348698920317
 21
-21039.97820098807
 31
0.0
  0
LINE
  5
5C
330
2
100
AcDbEntity
  8
Access .2
100
AcDbLine
 10
-6882.348698920317
 20
-21093.97820098807
 30
0.0
 11
-6882.348698920317
 21
-21039.97820098807
 31
0.0
  0
LINE
  5
5D
330
2
100
AcDbEntity
  8
Access Circulation
100
AcDbLine
 10
-7538.681723682493
 20
-21107.97820098807
 30
0.0
 11
-7238.681723682494
 21
-21107.97820098807
 31
0.0
  0
LINE
  5
60
330
2
100
AcDbEntity
  8
Access Circulation
100
AcDbLine
 10
-7238.681723682494
 20
-21341.68823465317
 30
0.0
 11
-7538.681723682493
 21
-21341.68823465317
 31
0.0
  0
LINE
  5
61
330
2
100
AcDbEntity
  8
Access Circulation
100
AcDbLine
 10
-7238.681723682494
 20
-21341.68823465317
 30
0.0
 11
-7238.681723682494
 21
-21107.97820098807
 31
0.0
  0
LINE
  5
62
330
2
100
AcDbEntity
  8
Access Circulation
100
AcDbLine
 10
-7538.681723682493
 20
-21341.68823465317
 30
0.0
 11
-7538.681723682493
 21
-21107.97820098807
 31
0.0
  0
LWPOLYLINE
  5
63
330
2
100
AcDbEntity
  8
Access .2
100
AcDbPolyline
 90
        4
 70
     1
 43
0.0
 10
-7460.681723682494
 20
-21284.83321782062
 10
-7460.681723682494
 20
-21164.83321782062
 10
-7316.681723682494
 20
-21164.83321782062
 10
-7316.681723682494
 20
-21284.83321782062
  0
LINE
  5
64
330
2
100
AcDbEntity
  8
Access .2
100
AcDbLine
 10
-7460.681723682494
 20
-21234.83321782062
 30
0.0
 11
-7316.681723682494
 21
-21234.83321782062
 31
0.0
  0
LINE
  5
65
330
2
100
AcDbEntity
  8
Access .2
100
AcDbLine
 10
-7460.681723682494
 20
-21214.83321782062
 30
0.0
 11
-7316.681723682494
 21
-21214.83321782062
 31
0.0
  0
LINE
  5
66
330
2
100
AcDbEntity
  8
Access .1
100
AcDbLine
 10
-6738.216985053128
 20
-21427.97707183768
 30
0.0
 11
-6601.740483588284
 21
-21427.97728546073
 31
0.0
  0
LINE
  5
67
330
2
100
AcDbEntity
  8
Access .2
100
AcDbLine
 10
-6928.848698920316
 20
-21807.97820098807
 30
0.0
 11
-6571.848637885159
 21
-21807.97820098807
 31
0.0
  0
LWPOLYLINE
  5
68
330
2
100
AcDbEntity
  8
Access .2
100
AcDbPolyline
 90
       19
 70
     0
 43
0.0
 10
-6441.848698920316
 20
-21360.97820098807
 10
-6462.895207709379
 20
-21362.12441070487
 10
-6483.953435248441
 20
-21363.35433013846
 10
-6503.94775897891
 20
-21364.59026153495
 10
-6517.275334662503
 20
-21365.44466216971
 10
-6543.914128607815
 20
-21367.20436675956
 10
-6577.913823432034
 20
-21369.48857696463
 10
-6601.406316107816
 20
-21371.03908355643
 10
-6613.153722113676
 20
-21371.79155548026
 10
-6630.776524848051
 20
-21372.87773712089
 10
-6643.995061225003
 20
-21373.65001495292
 10
-6657.214848822659
 20
-21374.37816436698
 10
-6675.738042182034
 20
-21375.31133087088
 10
-6694.264531439848
 20
-21376.1271572869
 10
-6712.794194525784
 20
-21376.8097744744
 10
-6730.055211371487
 20
-21377.31346710135
 10
-6747.318791693754
 20
-21377.680318908
 10
-6764.583684271878
 20
-21377.90337188651
 10
-6781.848698920315
 20
-21377.97820098807
  0
LINE
  5
69
330
2
100
AcDbEntity
  8
Access .1
100
AcDbLine
 10
-7097.588933295316
 20
-21347.51515777518
 30
0.0
 11
-7039.499394721097
 21
-21347.51512725761
 31
0.0
  0
LINE
  5
6A
330
2
100
AcDbEntity
  8
Access .1
100
AcDbLine
 10
-7097.588933295316
 20
-21347.51515777518
 30
0.0
 11
-7039.499394721097
 21
-21347.51512725761
 31
0.0
  0
LINE
  5
6B
330
2
100
AcDbEntity
  8
Access .1
100
AcDbLine
 10
-7105.286565131253
 20
-21364.07646758963
 30
0.0
 11
-7047.566045111722
 21
-21364.07646758963
 31
0.0
  0
LINE
  5
6C
330
2
100
AcDbEntity
  8
Access .2
100
AcDbLine
 10
-7086.848698920316
 20
-21807.97820098807
 30
0.0
 11
-6986.848698920316
 21
-21807.97820098807
 31
0.0
  0
LINE
  5
6D
330
2
100
AcDbEntity
  8
Access .2
100
AcDbLine
 10
-7231.03760272891
 20
-21377.97820098807
 30
0.0
 11
-6987.023564642972
 21
-21377.97820098807
 31
0.0
  0
LWPOLYLINE
  5
6E
330
2
100
AcDbEntity
  8
Access .2
100
AcDbPolyline
 90
       32
 70
     0
 43
0.0
 10
-7238.791692084378
 20
-21387.97820098807
 10
-7222.188603705472
 20
-21442.43721588065
 10
-7206.719121283597
 20
-21493.30418975761
 10
-7197.539616889065
 20
-21523.25624664237
 10
-7192.691228217191
 20
-21538.9061795037
 10
-7188.180486029691
 20
-21553.31757171561
 10
-7183.319768256253
 20
-21568.65079315116
 10
-7180.038640326566
 20
-21578.86807830741
 10
-7176.603215521878
 20
-21589.4385433953
 10
-7171.820378607816
 20
-21603.91858489921
 10
-7166.800053900785
 20
-21618.79829986502
 10
-7161.590886420317
 20
-21633.86841400077
 10
-7159.168034857815
 20
-21640.74443633964
 10
-7153.916936225003
 20
-21655.3491116326
 10
-7148.531010932035
 20
-21669.89859588553
 10
-7145.783940619534
 20
-21677.15076263358
 10
-7142.999089545316
 20
-21684.38686950614
 10
-7139.224736517973
 20
-21694.00877197196
 10
-7135.377690619534
 20
-21703.59910400321
 10
-7131.455144232815
 20
-21713.1561718743
 10
-7126.296574896878
 20
-21725.39233215263
 10
-7121.003423041409
 20
-21737.56751068046
 10
-7115.571111029691
 20
-21749.67862518241
 10
-7112.785344428129
 20
-21755.74403961112
 10
-7109.96289569766
 20
-21761.79221923758
 10
-7107.136418646878
 20
-21767.7536984246
 10
-7104.273320502347
 20
-21773.6977444451
 10
-7100.375737494535
 20
-21781.6413861077
 10
-7096.411198920316
 20
-21789.55269439628
 10
-7092.37939960391
 20
-21797.43123443534
 10
-7089.515752142972
 20
-21802.92882354667
 10
-7086.848698920316
 20
-21807.97820098807
  0
LWPOLYLINE
  5
6F
330
2
100
AcDbEntity
  8
Access .1
100
AcDbPolyline
 90
       25
 70
     0
 43
0.0
 10
-7217.48779804141
 20
-21347.51534088065
 10
-7220.387578314848
 20
-21347.57781036307
 10
-7221.872197455472
 20
-21347.66768463065
 10
-7223.353642767972
 20
-21347.8007107537
 10
-7224.76007587344
 20
-21347.97112090995
 10
-7226.158208197659
 20
-21348.18819244315
 10
-7227.98340351016
 20
-21348.55351837089
 10
-7229.784978217191
 20
-21349.02229888846
 10
-7231.550908392972
 20
-21349.61070831229
 10
-7232.415593451566
 20
-21349.9550076287
 10
-7233.265019721097
 20
-21350.33531768729
 10
-7234.530217475003
 20
-21350.99159820487
 10
-7235.739995307034
 20
-21351.74080474784
 10
-7236.884160346097
 20
-21352.58696563651
 10
-7237.951665228909
 20
-21353.53133209159
 10
-7238.929814642972
 20
-21354.57259185721
 10
-7239.802007025784
 20
-21355.70088775565
 10
-7240.560612982815
 20
-21356.90862090995
 10
-7241.200871771877
 20
-21358.18587310721
 10
-7241.55762226016
 20
-21359.06587799003
 10
-7241.858281439847
 20
-21359.96568878104
 10
-7242.081975287503
 20
-21360.7714138787
 10
-7242.270818060941
 20
-21361.58882720878
 10
-7242.427861517971
 20
-21362.57793243339
 10
-7242.454045600003
 20
-21363.07646758964
  0
LINE
  5
70
330
2
100
AcDbEntity
  8
Access .1
100
AcDbLine
 10
-7236.232060736722
 20
-21364.07646758963
 30
0.0
 11
-7228.692632025785
 21
-21364.07646758963
 31
0.0
  0
ARC
  5
71
330
2
100
AcDbEntity
  8
Access .2
100
AcDbCircle
 10
-7231.03760272891
 20
-21385.97820098807
 30
0.0
 40
8.0
100
AcDbArc
 50
90.00000250446868
 51
194.4828610095881
  0
LINE
  5
72
330
2
100
AcDbEntity
  8
Access .1
100
AcDbLine
 10
-7242.454045600003
 20
-21364.07646758963
 30
0.0
 11
-7236.232060736722
 21
-21364.07646758963
 31
0.0
  0
LINE
  5
73
330
2
100
AcDbEntity
  8
Access .1
100
AcDbLine
 10
-7242.45313007266
 20
-21364.07646758963
 30
0.0
 11
-7242.45313007266
 21
-21363.07646758964
 31
0.0
  0
LINE
  5
74
330
2
100
AcDbEntity
  8
Access .1
100
AcDbLine
 10
-7242.453069037503
 20
-21364.07646758963
 30
0.0
 11
-7242.453069037503
 21
-21363.07646758964
 31
0.0
  0
LINE
  5
75
330
2
100
AcDbEntity
  8
Access .1
100
AcDbLine
 10
-7168.608342475003
 20
-21347.51506622245
 30
0.0
 11
-7097.588933295316
 21
-21347.51515777518
 31
0.0
  0
LINE
  5
76
330
2
100
AcDbEntity
  8
Access .1
100
AcDbLine
 10
-7168.608342475003
 20
-21347.51506622245
 30
0.0
 11
-7097.588933295316
 21
-21347.51515777518
 31
0.0
  0
LINE
  5
77
330
2
100
AcDbEntity
  8
Access .1
100
AcDbLine
 10
-7153.400090521879
 20
-21374.07646758964
 30
0.0
 11
-7135.122502631253
 21
-21374.07646758964
 31
0.0
  0
LINE
  5
78
330
2
100
AcDbEntity
  8
Access .1
100
AcDbLine
 10
-7184.848027533597
 20
-21364.07646758963
 30
0.0
 11
-7110.183049506253
 21
-21364.07646758963
 31
0.0
  0
LINE
  5
79
330
2
100
AcDbEntity
  8
Access .2
100
AcDbLine
 10
-7188.672917670316
 20
-21377.97820098807
 30
0.0
 11
-7153.384221381253
 21
-21377.97820098807
 31
0.0
  0
LINE
  5
7A
330
2
100
AcDbEntity
  8
Access .2
100
AcDbLine
 10
-7188.672917670316
 20
-21377.97820098807
 30
0.0
 11
-7153.384221381253
 21
-21377.97820098807
 31
0.0
  0
LINE
  5
7B
330
2
100
AcDbEntity
  8
Access .1
100
AcDbLine
 10
-7197.660344428128
 20
-21347.51476104667
 30
0.0
 11
-7168.608647650784
 21
-21347.51506622245
 31
0.0
  0
LINE
  5
7C
330
2
100
AcDbEntity
  8
Access .1
100
AcDbLine
 10
-7197.660344428128
 20
-21347.51476104667
 30
0.0
 11
-7168.608647650784
 21
-21347.51506622245
 31
0.0
  0
LINE
  5
7D
330
2
100
AcDbEntity
  8
Access .1
100
AcDbLine
 10
-7218.828069037503
 20
-21364.07646758963
 30
0.0
 11
-7188.308293646878
 21
-21364.07646758963
 31
0.0
  0
LINE
  5
7E
330
2
100
AcDbEntity
  8
Access .1
100
AcDbLine
 10
-7212.453069037504
 20
-21347.51543243339
 30
0.0
 11
-7197.659856146877
 21
-21347.51476104667
 31
0.0
  0
LINE
  5
7F
330
2
100
AcDbEntity
  8
Access .1
100
AcDbLine
 10
-7212.453069037504
 20
-21347.51543243339
 30
0.0
 11
-7197.659856146877
 21
-21347.51476104667
 31
0.0
  0
LINE
  5
80
330
2
100
AcDbEntity
  8
Access .2
100
AcDbLine
 10
-7217.458928412503
 20
-21377.97820098807
 30
0.0
 11
-7217.403447455471
 21
-21377.97820098807
 31
0.0
  0
LINE
  5
81
330
2
100
AcDbEntity
  8
Access .2
100
AcDbLine
 10
-7217.458928412503
 20
-21377.97820098807
 30
0.0
 11
-7217.403447455471
 21
-21377.97820098807
 31
0.0
  0
LINE
  5
82
330
2
100
AcDbEntity
  8
Access .1
100
AcDbLine
 10
-7228.69171649844
 20
-21364.07646758963
 30
0.0
 11
-7218.821660346097
 21
-21364.07646758963
 31
0.0
  0
LWPOLYLINE
  5
83
330
2
100
AcDbEntity
  8
Access .1
100
AcDbPolyline
 90
        6
 70
     0
 43
0.0
 10
-7212.443974799223
 20
-21347.51543243339
 10
-7217.476567572659
 20
-21347.51454742362
 10
-7217.666020697659
 20
-21347.51500518729
 10
-7217.670354193753
 20
-21347.51506622245
 10
-7217.663762396878
 20
-21347.51515777518
 10
-7217.48779804141
 20
-21347.51534088065
  0
LINE
  5
84
330
2
100
AcDbEntity
  8
Access .1
100
AcDbLine
 10
-7217.666020697659
 20
-21347.51500518729
 30
0.0
 11
-7212.443974799223
 21
-21347.51543243339
 31
0.0
  0
LINE
  5
85
330
2
100
AcDbEntity
  8
Access .1
100
AcDbLine
 10
-7188.308537787503
 20
-21364.07646758963
 30
0.0
 11
-7184.847295111722
 21
-21364.07646758963
 31
0.0
  0
ARC
  5
86
330
2
100
AcDbEntity
  8
Access .1
100
AcDbCircle
 10
-7153.76495868594
 20
-21372.57680328299
 30
0.0
 40
1.499693870544433
100
AcDbArc
 50
194.9899930801741
 51
269.9950182875159
  0
LINE
  5
87
330
2
100
AcDbEntity
  8
Access .1
100
AcDbLine
 10
-7153.76904804141
 20
-21374.07646758964
 30
0.0
 11
-7153.400090521879
 21
-21374.07646758964
 31
0.0
  0
LINE
  5
88
330
2
100
AcDbEntity
  8
Access .1
100
AcDbLine
 10
-7155.217900580471
 20
-21372.96468170096
 30
0.0
 11
-7157.599492377347
 21
-21364.07646758963
 31
0.0
  0
LINE
  5
89
330
2
100
AcDbEntity
  8
Access .1
100
AcDbLine
 10
-7104.481084174222
 20
-21372.96468170096
 30
0.0
 11
-7102.099492377347
 21
-21364.07646758963
 31
0.0
  0
LINE
  5
8A
330
2
100
AcDbEntity
  8
Access .1
100
AcDbLine
 10
-7104.481084174222
 20
-21372.96468170096
 30
0.0
 11
-7102.099492377347
 21
-21364.07646758963
 31
0.0
  0
LINE
  5
8B
330
2
100
AcDbEntity
  8
Access .1
100
AcDbLine
 10
-7135.122502631253
 20
-21374.07646758964
 30
0.0
 11
-7121.714360541409
 21
-21374.07646758964
 31
0.0
  0
ARC
  5
8C
330
2
100
AcDbEntity
  8
Access .1
100
AcDbCircle
 10
-7131.752629584378
 20
-21377.5763760369
 30
0.0
 40
3.499921321868896
100
AcDbArc
 50
7.598981647262667
 51
90.00401865586031
  0
LINE
  5
8D
330
2
100
AcDbEntity
  8
Access .1
100
AcDbLine
 10
-7128.168156928129
 20
-21377.97820098807
 30
0.0
 11
-7128.284123725004
 21
-21377.10939605643
 31
0.0
  0
ARC
  5
8E
330
2
100
AcDbEntity
  8
Access .1
100
AcDbCircle
 10
-7105.930974310941
 20
-21372.57652862479
 30
0.0
 40
1.499929666519165
100
AcDbArc
 50
270.0048400994501
 51
345.0024610823002
  0
LINE
  5
8F
330
2
100
AcDbEntity
  8
Access .1
100
AcDbLine
 10
-7121.714360541409
 20
-21374.07646758964
 30
0.0
 11
-7110.921758002347
 21
-21374.07646758964
 31
0.0
  0
LINE
  5
90
330
2
100
AcDbEntity
  8
Access .1
100
AcDbLine
 10
-7110.921758002347
 20
-21374.07646758964
 30
0.0
 11
-7105.930058783598
 21
-21374.07646758964
 31
0.0
  0
LWPOLYLINE
  5
91
330
2
100
AcDbEntity
  8
Access .1
100
AcDbPolyline
 90
        7
 70
     0
 43
0.0
 10
-7107.772832221098
 20
-21374.07646758964
 10
-7108.005559271878
 20
-21374.13466461112
 10
-7108.244511908598
 20
-21374.29256256034
 10
-7108.476201361722
 20
-21374.52116973807
 10
-7108.825627631254
 20
-21374.9840298455
 10
-7109.037297553128
 20
-21375.32619293143
 10
-7109.414189642972
 20
-21376.03819854667
  0
LINE
  5
92
330
2
100
AcDbEntity
  8
Access .1
100
AcDbLine
 10
-7109.813481635159
 20
-21377.97795684745
 30
0.0
 11
-7109.759221381253
 21
-21377.29872711112
 31
0.0
  0
ARC
  5
93
330
2
100
AcDbEntity
  8
Access .1
100
AcDbCircle
 10
-7106.271245307034
 20
-21377.57585723807
 30
0.0
 40
3.498904228210449
100
AcDbArc
 50
153.9302248750196
 51
175.4587760220009
  0
ARC
  5
94
330
2
100
AcDbEntity
  8
Access .1
100
AcDbCircle
 10
-7106.271245307034
 20
-21377.57585723807
 30
0.0
 40
3.498904228210449
100
AcDbArc
 50
153.9302248750196
 51
175.4586942018172
  0
LINE
  5
95
330
2
100
AcDbEntity
  8
Access .1
100
AcDbLine
 10
-7109.813481635159
 20
-21377.97795684745
 30
0.0
 11
-7109.759221381253
 21
-21377.2987576287
 31
0.0
  0
LINE
  5
96
330
2
100
AcDbEntity
  8
Access .1
100
AcDbLine
 10
-7109.459538764065
 20
-21376.13173492362
 30
0.0
 11
-7109.414189642972
 21
-21376.03819854667
 31
0.0
  0
LINE
  5
97
330
2
100
AcDbEntity
  8
Access .1
100
AcDbLine
 10
-7110.183049506253
 20
-21364.07646758963
 30
0.0
 11
-7105.286687201566
 21
-21364.07646758963
 31
0.0
  0
LINE
  5
98
330
2
100
AcDbEntity
  8
Access .2
100
AcDbLine
 10
-6986.848698920316
 20
-21807.97820098807
 30
0.0
 11
-6928.848698920316
 21
-21807.97820098807
 31
0.0
  0
LINE
  5
99
330
2
100
AcDbEntity
  8
Access .1
100
AcDbLine
 10
-6924.327641791409
 20
-21771.09770782401
 30
0.0
 11
-6886.523442572659
 21
-21463.25591094901
 31
0.0
  0
LWPOLYLINE
  5
9A
330
2
100
AcDbEntity
  8
Access .1
100
AcDbPolyline
 90
        5
 70
     0
 43
0.0
 10
-6880.496007269925
 20
-21337.58272369315
 10
-6890.478459662503
 20
-21338.88777740409
 10
-6901.078526801176
 20
-21340.14183624198
 10
-6910.826817816801
 20
-21341.16634185721
 10
-6912.26465351016
 20
-21341.30834014823
  0
LWPOLYLINE
  5
9B
330
2
100
AcDbEntity
  8
Access .1
100
AcDbPolyline
 90
        5
 70
     0
 43
0.0
 10
-6880.496007269925
 20
-21337.58272369315
 10
-6890.478459662503
 20
-21338.88777740409
 10
-6901.078526801176
 20
-21340.14183624198
 10
-6910.826817816801
 20
-21341.16634185721
 10
-6912.26465351016
 20
-21341.30834014823
  0
LWPOLYLINE
  5
9C
330
2
100
AcDbEntity
  8
Access .1
100
AcDbPolyline
 90
        5
 70
     0
 43
0.0
 10
-6881.923924750394
 20
-21353.60970123221
 10
-6886.467259711331
 20
-21354.56896026542
 10
-6891.094975775785
 20
-21355.43239410331
 10
-6895.790990180081
 20
-21356.21730621268
 10
-6897.432042426174
 20
-21356.46690948417
  0
LINE
  5
9D
330
2
100
AcDbEntity
  8
Access .1
100
AcDbLine
 10
-6897.844579047269
 20
-21364.07646758963
 30
0.0
 11
-6886.179723090238
 21
-21364.07646758963
 31
0.0
  0
LINE
  5
9E
330
2
100
AcDbEntity
  8
Access .2
100
AcDbLine
 10
-6987.023625678128
 20
-21377.97820098807
 30
0.0
 11
-6781.848698920315
 21
-21377.97820098807
 31
0.0
  0
LWPOLYLINE
  5
9F
330
2
100
AcDbEntity
  8
Access .1
100
AcDbPolyline
 90
        4
 70
     0
 43
0.0
 10
-6960.85986835391
 20
-21345.3127041619
 10
-6971.863164252347
 20
-21346.02235992362
 10
-6982.77734882266
 20
-21346.59651763846
 10
-6984.755742377346
 20
-21346.6964932244
  0
LWPOLYLINE
  5
A0
330
2
100
AcDbEntity
  8
Access .1
100
AcDbPolyline
 90
        4
 70
     0
 43
0.0
 10
-6960.85986835391
 20
-21345.3127041619
 10
-6971.863164252347
 20
-21346.02235992362
 10
-6982.77734882266
 20
-21346.59651763846
 10
-6984.755742377346
 20
-21346.6964932244
  0
LWPOLYLINE
  5
A1
330
2
100
AcDbEntity
  8
Access .1
100
AcDbPolyline
 90
        6
 70
     0
 43
0.0
 10
-6965.98029071719
 20
-21362.68446929862
 10
-6971.607976264066
 20
-21362.96764190604
 10
-6982.848698920316
 20
-21363.48042877127
 10
-6991.231572455472
 20
-21363.81001861503
 10
-6999.399846381253
 20
-21364.01735504081
 10
-7007.522038764065
 20
-21364.07646758963
  0
LINE
  5
A2
330
2
100
AcDbEntity
  8
Access .1
100
AcDbLine
 10
-6989.66583759219
 20
-21364.07643707206
 30
0.0
 11
-6897.844579047269
 21
-21364.07646758963
 31
0.0
  0
LINE
  5
A3
330
2
100
AcDbEntity
  8
Access .1
100
AcDbLine
 10
-7052.882024115628
 20
-21377.97820098807
 30
0.0
 11
-6987.023564642972
 21
-21377.97820098807
 31
0.0
  0
LINE
  5
A4
330
2
100
AcDbEntity
  8
Access .2
100
AcDbLine
 10
-7052.882024115628
 20
-21377.97820098807
 30
0.0
 11
-6987.023564642972
 21
-21377.97820098807
 31
0.0
  0
LINE
  5
A5
330
2
100
AcDbEntity
  8
Access .1
100
AcDbLine
 10
-7039.499394721097
 20
-21347.51512725761
 30
0.0
 11
-7007.522038764065
 21
-21347.51512725761
 31
0.0
  0
LINE
  5
A6
330
2
100
AcDbEntity
  8
Access .1
100
AcDbLine
 10
-7039.499394721097
 20
-21347.51512725761
 30
0.0
 11
-7007.522038764065
 21
-21347.51512725761
 31
0.0
  0
LINE
  5
A7
330
2
100
AcDbEntity
  8
Access .1
100
AcDbLine
 10
-7047.566045111722
 20
-21364.07646758963
 30
0.0
 11
-7007.522038764065
 21
-21364.07646758963
 31
0.0
  0
LWPOLYLINE
  5
A8
330
2
100
AcDbEntity
  8
Access .1
100
AcDbPolyline
 90
        5
 70
     0
 43
0.0
 10
-6984.755742377346
 20
-21346.6964932244
 10
-6994.265569037503
 20
-21347.17134674003
 10
-6999.938176459377
 20
-21347.39427764823
 10
-7005.61572772891
 20
-21347.50749786307
 10
-7007.522038764065
 20
-21347.51515777518
  0
LWPOLYLINE
  5
A9
330
2
100
AcDbEntity
  8
Access .1
100
AcDbPolyline
 90
        5
 70
     0
 43
0.0
 10
-6984.755742377346
 20
-21346.6964932244
 10
-6994.265569037503
 20
-21347.17134674003
 10
-6999.938176459377
 20
-21347.39427764823
 10
-7005.61572772891
 20
-21347.50749786307
 10
-7007.522038764065
 20
-21347.51515777518
  0
LINE
  5
AA
330
2
100
AcDbEntity
  8
Access .1
100
AcDbLine
 10
-7006.30743915469
 20
-21364.07646758963
 30
0.0
 11
-6989.660771674222
 21
-21364.07646758963
 31
0.0
  0
LINE
  5
AB
330
2
100
AcDbEntity
  8
Access .1
100
AcDbLine
 10
-7006.316350287502
 20
-21364.07646758963
 30
0.0
 11
-6989.66583759219
 21
-21364.07643707206
 31
0.0
  0
LINE
  5
AC
330
2
100
AcDbEntity
  8
Access .1
100
AcDbLine
 10
-6989.666020697659
 20
-21364.07646758963
 30
0.0
 11
-6989.656071967191
 21
-21364.07506378104
 31
0.0
  0
LWPOLYLINE
  5
AD
330
2
100
AcDbEntity
  8
Access .1
100
AcDbPolyline
 90
        5
 70
     0
 43
0.0
 10
-6912.26465351016
 20
-21341.30834014823
 10
-6923.648045844143
 20
-21342.35747344901
 10
-6935.698766058988
 20
-21343.34990508964
 10
-6952.456487006253
 20
-21344.67549713065
 10
-6960.85986835391
 20
-21345.3127041619
  0
LWPOLYLINE
  5
AE
330
2
100
AcDbEntity
  8
Access .1
100
AcDbPolyline
 90
        5
 70
     0
 43
0.0
 10
-6912.26465351016
 20
-21341.30834014823
 10
-6923.648045844143
 20
-21342.35747344901
 10
-6935.698766058988
 20
-21343.34990508964
 10
-6952.456487006253
 20
-21344.67549713065
 10
-6960.85986835391
 20
-21345.3127041619
  0
LWPOLYLINE
  5
AF
330
2
100
AcDbEntity
  8
Access .1
100
AcDbPolyline
 90
        4
 70
     0
 43
0.0
 10
-6929.237431830472
 20
-21360.01704986503
 10
-6935.985997504301
 20
-21360.54469879081
 10
-6949.554112738676
 20
-21361.56523712088
 10
-6954.718694037502
 20
-21361.95372589042
  0
ARC
  5
B0
330
2
100
AcDbEntity
  8
Access .1
100
AcDbCircle
 10
-6997.014409369533
 20
-20793.29433257987
 30
0.0
 40
570.2332153320312
100
AcDbArc
 50
273.1199936587231
 51
274.2543585159519
  0
LWPOLYLINE
  5
B1
330
2
100
AcDbEntity
  8
Access .1
100
AcDbPolyline
 90
        7
 70
     0
 43
0.0
 10
-6897.432042426174
 20
-21356.46690948417
 10
-6904.274998969144
 20
-21357.42952545097
 10
-6907.721959418363
 20
-21357.8625088494
 10
-6912.924260443753
 20
-21358.44948394706
 10
-6921.034398383206
 20
-21359.26302154472
 10
-6926.493993109769
 20
-21359.77446563651
 10
-6929.237431830472
 20
-21360.01704986503
  0
LWPOLYLINE
  5
B2
330
2
100
AcDbEntity
  8
Access .1
100
AcDbPolyline
 90
       15
 70
     0
 43
0.0
 10
-6837.173711127348
 20
-21438.36266143729
 10
-6838.502263373441
 20
-21445.12956817557
 10
-6840.127354926174
 20
-21452.87468536307
 10
-6842.052281683987
 20
-21461.40993316581
 10
-6844.072697943753
 20
-21469.71678741385
 10
-6845.958745307034
 20
-21476.93871124198
 10
-6847.813084906644
 20
-21483.55284698417
 10
-6849.583409613675
 20
-21489.42079742362
 10
-6850.821904486721
 20
-21493.2655545037
 10
-6852.525426215237
 20
-21498.21968658378
 10
-6853.573430365628
 20
-21501.09456451346
 10
-6855.097630805082
 20
-21505.03911407401
 10
-6856.693089789456
 20
-21508.81871612479
 10
-6858.333470648831
 20
-21512.37456329276
 10
-6859.842747992582
 20
-21515.50478179862
  0
CIRCLE
  5
B3
330
2
100
AcDbEntity
  8
Access .1
100
AcDbCircle
 10
-6816.848698920316
 20
-21777.97820098807
 30
0.0
 40
10.0
  0
LWPOLYLINE
  5
B4
330
2
100
AcDbEntity
  8
Access .1
100
AcDbPolyline
 90
       13
 70
     0
 43
0.0
 10
-6860.020207709379
 20
-21515.86992462088
 10
-6861.413945502348
 20
-21518.47112090995
 10
-6862.90625507266
 20
-21521.05818756034
 10
-6864.448857611723
 20
-21523.52684600761
 10
-6865.246342963285
 20
-21524.7262173455
 10
-6866.460637396878
 20
-21526.45604522636
 10
-6867.730168646878
 20
-21528.1473904412
 10
-6869.552037543363
 20
-21530.38075836112
 10
-6871.336369818753
 20
-21532.3647366326
 10
-6873.293370551175
 20
-21534.33119781424
 10
-6875.297490424222
 20
-21536.14903839042
 10
-6875.813390082424
 20
-21536.58550079276
 10
-6877.563939398831
 20
-21537.98195465018
  0
LWPOLYLINE
  5
B5
330
2
100
AcDbEntity
  8
Access .1
100
AcDbPolyline
 90
        5
 70
     0
 43
0.0
 10
-6881.498326605863
 20
-21540.21346099784
 10
-6880.580388373441
 20
-21539.5991116326
 10
-6879.574315375394
 20
-21539.043600158
 10
-6878.516484564847
 20
-21538.57069976737
 10
-6878.137242621487
 20
-21538.42464263846
  0
LINE
  5
B6
330
2
100
AcDbEntity
  8
Access .1
100
AcDbLine
 10
-6771.848698920315
 20
-21622.97820098807
 30
0.0
 11
-6771.848698920315
 21
-21670.47820098807
 31
0.0
  0
LINE
  5
B7
330
2
100
AcDbEntity
  8
Access .1
100
AcDbLine
 10
-6776.848698920315
 20
-21675.47820098807
 30
0.0
 11
-6796.848698920316
 21
-21675.47820098807
 31
0.0
  0
ARC
  5
B8
330
2
100
AcDbEntity
  8
Access .1
100
AcDbCircle
 10
-6776.848698920315
 20
-21670.47820098807
 30
0.0
 40
5.0
100
AcDbArc
 50
270.0000006832169
 51
0.0
  0
LINE
  5
B9
330
2
100
AcDbEntity
  8
Access .1
100
AcDbLine
 10
-6776.848698920315
 20
-21570.47820098807
 30
0.0
 11
-6796.848698920316
 21
-21570.47820098807
 31
0.0
  0
LINE
  5
BA
330
2
100
AcDbEntity
  8
Access .1
100
AcDbLine
 10
-6771.848698920315
 20
-21622.97820098807
 30
0.0
 11
-6771.848698920315
 21
-21575.47820098807
 31
0.0
  0
ARC
  5
BB
330
2
100
AcDbEntity
  8
Access .1
100
AcDbCircle
 10
-6776.848698920315
 20
-21575.47820098807
 30
0.0
 40
5.0
100
AcDbArc
 50
0.0
 51
90.00000250446868
  0
LINE
  5
BC
330
2
100
AcDbEntity
  8
Access .1
100
AcDbLine
 10
-6846.952885932035
 20
-21427.97694976737
 30
0.0
 11
-6741.094518012113
 21
-21427.97707183768
 31
0.0
  0
ARC
  5
BD
330
2
100
AcDbEntity
  8
Access .1
100
AcDbCircle
 10
-6809.925359076565
 20
-21464.07646758964
 30
0.0
 40
100.0
100
AcDbArc
 50
77.51299602577134
 51
85.98858464897336
  0
ARC
  5
BE
330
2
100
AcDbEntity
  8
Access .1
100
AcDbCircle
 10
-6809.925359076565
 20
-21464.07646758964
 30
0.0
 40
100.0
100
AcDbArc
 50
77.51299602577134
 51
85.98858464897336
  0
LWPOLYLINE
  5
BF
330
2
100
AcDbEntity
  8
Access .1
100
AcDbPolyline
 90
        4
 70
     0
 43
0.0
 10
-6855.900029486722
 20
-21333.90688140799
 10
-6863.375340766019
 20
-21335.10558135917
 10
-6872.658055609768
 20
-21336.47939117362
 10
-6880.496007269925
 20
-21337.58272369315
  0
LWPOLYLINE
  5
C0
330
2
100
AcDbEntity
  8
Access .1
100
AcDbPolyline
 90
        4
 70
     0
 43
0.0
 10
-6855.900029486722
 20
-21333.90688140799
 10
-6863.375340766019
 20
-21335.10558135917
 10
-6872.658055609768
 20
-21336.47939117362
 10
-6880.496007269925
 20
-21337.58272369315
  0
LWPOLYLINE
  5
C1
330
2
100
AcDbEntity
  8
Access .1
100
AcDbPolyline
 90
        6
 70
     0
 43
0.0
 10
-6837.738042182035
 20
-21338.48924835135
 10
-6837.799809760159
 20
-21336.33943756034
 10
-6837.795018500393
 20
-21334.22868926933
 10
-6837.726201361722
 20
-21332.18202789237
 10
-6837.647710150784
 20
-21330.8432522576
 10
-6837.439000433987
 20
-21328.24413116385
  0
ARC
  5
C2
330
2
100
AcDbEntity
  8
Access .1
100
AcDbCircle
 10
-6827.925328558987
 20
-21329.07646758964
 30
0.0
 40
9.549976348876953
100
AcDbArc
 50
317.9969470027654
 51
0.0000825757114076
  0
LWPOLYLINE
  5
C3
330
2
100
AcDbEntity
  8
Access .1
100
AcDbPolyline
 90
       14
 70
     0
 43
0.0
 10
-6840.74542743594
 20
-21331.74794586112
 10
-6840.897160834377
 20
-21332.94377715995
 10
-6841.169835394925
 20
-21334.1190701287
 10
-6841.548436469143
 20
-21335.26479156425
 10
-6842.027135199612
 20
-21336.37209136893
 10
-6842.606572455472
 20
-21337.42995269706
 10
-6843.293217963284
 20
-21338.42613799979
 10
-6843.677983588285
 20
-21338.89366729667
 10
-6844.09116107852
 20
-21339.33650787284
 10
-6844.686864203518
 20
-21339.88142974784
 10
-6845.333592719144
 20
-21340.36360748222
 10
-6846.0299428168
 20
-21340.76906402518
 10
-6846.563359564846
 20
-21341.00542266776
 10
-6847.118565863675
 20
-21341.18544586112
  0
ARC
  5
C4
330
2
100
AcDbEntity
  8
Access .1
100
AcDbCircle
 10
-6827.521947211332
 20
-21329.07646758964
 30
0.0
 40
11.49989414215088
100
AcDbArc
 50
299.9448781907304
 51
140.0466490751028
  0
LWPOLYLINE
  5
C5
330
2
100
AcDbEntity
  8
Access .1
100
AcDbPolyline
 90
        7
 70
     0
 43
0.0
 10
-6847.249425238675
 20
-21341.23656280448
 10
-6846.178838080472
 20
-21341.13835723807
 10
-6845.103673285549
 20
-21341.08940704276
 10
-6844.025487250394
 20
-21341.07808502128
 10
-6841.866185492581
 20
-21341.12898834159
 10
-6839.710423773832
 20
-21341.22594268729
 10
-6837.560918158597
 20
-21341.32207305838
  0
LWPOLYLINE
  5
C6
330
2
100
AcDbEntity
  8
Access .1
100
AcDbPolyline
 90
       35
 70
     0
 43
0.0
 10
-6847.107884711332
 20
-21427.97685821463
 10
-6850.207890814847
 20
-21427.9862576287
 10
-6853.269749945706
 20
-21428.05638702323
 10
-6854.275761908597
 20
-21428.10228546073
 10
-6856.80713397891
 20
-21428.28542144706
 10
-6859.313268012113
 20
-21428.58452423026
 10
-6861.749852484769
 20
-21429.01466949393
 10
-6863.003606146879
 20
-21429.29811675956
 10
-6864.241887396878
 20
-21429.62471588065
 10
-6865.463292426174
 20
-21429.99660308768
 10
-6866.380559271878
 20
-21430.3110256951
 10
-6868.092229193753
 20
-21430.98576934745
 10
-6869.370305365627
 20
-21431.57198150565
 10
-6870.844090766019
 20
-21432.34728057792
 10
-6872.589726752346
 20
-21433.42317779471
 10
-6873.824406928128
 20
-21434.30214507987
 10
-6875.006932562894
 20
-21435.250631408
 10
-6875.638951605863
 20
-21435.80641754081
 10
-6876.867924994535
 20
-21436.99876983573
 10
-6877.610417670315
 20
-21437.79958160331
 10
-6878.319768256253
 20
-21438.62987335135
 10
-6879.435918158598
 20
-21440.08849151542
 10
-6880.255986517972
 20
-21441.30360992362
 10
-6881.029515570706
 20
-21442.58650787284
 10
-6881.641942328518
 20
-21443.71675689628
 10
-6882.200261420315
 20
-21444.8549710076
 10
-6882.734776801175
 20
-21446.06300933768
 10
-6883.220006293362
 20
-21447.28291900565
 10
-6883.697209662503
 20
-21448.62544830253
 10
-6884.129216498441
 20
-21449.99535186698
 10
-6884.542271918363
 20
-21451.48323638847
 10
-6885.102116889065
 20
-21453.87944610526
 10
-6885.563084906644
 20
-21456.31560333182
 10
-6886.053441351956
 20
-21459.55232818534
 10
-6886.495335883207
 20
-21463.02632720878
  0
LWPOLYLINE
  5
C7
330
2
100
AcDbEntity
  8
Access .1
100
AcDbPolyline
 90
        7
 70
     0
 43
0.0
 10
-6874.948491400785
 20
-21356.98659332206
 10
-6873.161076850003
 20
-21355.39583404471
 10
-6870.768040961332
 20
-21353.44792755057
 10
-6868.176060980862
 20
-21351.52739532401
 10
-6865.19058734805
 20
-21349.50072296073
 10
-6862.56525165469
 20
-21347.84816558768
 10
-6861.685918158596
 20
-21347.31917388847
  0
LWPOLYLINE
  5
C8
330
2
100
AcDbEntity
  8
Access .1
100
AcDbPolyline
 90
        4
 70
     0
 43
0.0
 10
-6855.531468695706
 20
-21344.84892852714
 10
-6860.231786078519
 20
-21346.75636871268
 10
-6862.736241644926
 20
-21347.7186795037
 10
-6866.60855609805
 20
-21349.12764556815
  0
LWPOLYLINE
  5
C9
330
2
100
AcDbEntity
  8
Access .1
100
AcDbPolyline
 90
        4
 70
     0
 43
0.0
 10
-6869.274663275785
 20
-21350.0243435662
 10
-6873.095738715237
 20
-21351.2504788201
 10
-6875.040501898832
 20
-21351.83482940604
 10
-6878.010136908597
 20
-21352.65602691581
  0
LWPOLYLINE
  5
CA
330
2
100
AcDbEntity
  8
Access .1
100
AcDbPolyline
 90
        4
 70
     0
 43
0.0
 10
-6880.382451361722
 20
-21362.67503936698
 10
-6878.648198432035
 20
-21360.71227081229
 10
-6876.836919135159
 20
-21358.81099517753
 10
-6874.948491400785
 20
-21356.98659332206
  0
LWPOLYLINE
  5
CB
330
2
100
AcDbEntity
  8
Access .1
100
AcDbPolyline
 90
       10
 70
     0
 43
0.0
 10
-6880.382787055082
 20
-21362.67738922049
 10
-6880.78711444766
 20
-21363.08592803886
 10
-6881.245518988674
 20
-21363.43266876151
 10
-6881.448582953519
 20
-21363.54662139823
 10
-6881.872044867582
 20
-21363.74608428885
 10
-6882.287053412503
 20
-21363.91216094901
 10
-6882.47510272891
 20
-21363.95412261893
 10
-6882.861729926175
 20
-21363.99858673026
 10
-6883.585179633207
 20
-21364.06380279471
 10
-6883.946080512112
 20
-21364.07646758963
  0
ARC
  5
CC
330
2
100
AcDbEntity
  8
Access .1
100
AcDbCircle
 10
-6883.423222846097
 20
-21360.07628448417
 30
0.0
 40
4.000192642211914
100
AcDbArc
 50
270.0009264012063
 51
319.4819978044813
  0
LINE
  5
CD
330
2
100
AcDbEntity
  8
Access .1
100
AcDbLine
 10
-6883.423039740629
 20
-21364.07646758963
 30
0.0
 11
-6883.421635932035
 21
-21364.07646758963
 31
0.0
  0
LINE
  5
CE
330
2
100
AcDbEntity
  8
Access .1
100
AcDbLine
 10
-6886.179723090238
 20
-21364.07646758963
 30
0.0
 11
-6883.421696967191
 21
-21364.07646758963
 31
0.0
  0
LWPOLYLINE
  5
CF
330
2
100
AcDbEntity
  8
Access .1
100
AcDbPolyline
 90
        5
 70
     0
 43
0.0
 10
-6880.382787055082
 20
-21362.67738922049
 10
-6880.943364447659
 20
-21363.21593292167
 10
-6881.675847357816
 20
-21363.65904815604
 10
-6882.096593207426
 20
-21363.83922393729
 10
-6882.2926381293
 20
-21363.91350372245
  0
ARC
  5
D0
330
2
100
AcDbEntity
  8
Access .1
100
AcDbCircle
 10
-6925.078557318752
 20
-21159.80742462089
 30
0.0
 40
198.5501403808594
100
AcDbArc
 50
282.5553810153796
 51
283.7148940055266
  0
ARC
  5
D1
330
2
100
AcDbEntity
  8
Access .1
100
AcDbCircle
 10
-6915.795842475003
 20
-21208.91460235526
 30
0.0
 40
148.5902709960937
100
AcDbArc
 50
288.2621067079501
 51
289.3310714467157
  0
ARC
  5
D2
330
2
100
AcDbEntity
  8
Access .1
100
AcDbCircle
 10
-6738.516026801175
 20
-21592.92095001151
 30
0.0
 40
274.17431640625
100
AcDbArc
 50
113.7669026856151
 51
114.1839752536956
  0
ARC
  5
D3
330
2
100
AcDbEntity
  8
Access .1
100
AcDbCircle
 10
-6936.272038764066
 20
-21152.50624664237
 30
0.0
 40
208.6019134521484
100
AcDbArc
 50
292.7714172987297
 51
294.042823421001
  0
LINE
  5
D4
330
2
100
AcDbEntity
  8
Access .1
100
AcDbLine
 10
-6851.282018012113
 20
-21343.00923736502
 30
0.0
 11
-6850.834904975004
 21
-21342.80895049979
 31
0.0
  0
LWPOLYLINE
  5
D5
330
2
100
AcDbEntity
  8
Access .1
100
AcDbPolyline
 90
       28
 70
     0
 43
0.0
 10
-6813.99997455508
 20
-21363.96919830253
 10
-6815.229802435941
 20
-21363.80547149589
 10
-6816.428746527738
 20
-21363.54265411307
 10
-6817.591710394925
 20
-21363.16808135917
 10
-6818.712956732816
 20
-21362.67406280448
 10
-6819.7848256293
 20
-21362.05815704276
 10
-6820.554021185941
 20
-21361.51558502128
 10
-6821.363103217191
 20
-21360.83946807792
 10
-6822.128728217191
 20
-21360.0836392205
 10
-6822.846684760159
 20
-21359.25234039237
 10
-6823.51285297305
 20
-21358.35085113456
 10
-6824.12320453555
 20
-21357.38548858573
 10
-6824.673741644925
 20
-21356.36336334159
 10
-6825.160741156643
 20
-21355.29228790213
 10
-6825.580663031644
 20
-21354.18050201346
 10
-6825.9303334418
 20
-21353.03670318534
 10
-6826.206914252347
 20
-21351.86971099784
 10
-6826.408055609769
 20
-21350.6884060662
 10
-6826.531926459378
 20
-21349.50154693534
 10
-6826.577245062894
 20
-21348.31752593925
 10
-6826.543370551175
 20
-21347.14436920096
 10
-6826.4303334418
 20
-21345.98952300956
 10
-6826.239018744534
 20
-21344.8595791619
 10
-6825.971074408596
 20
-21343.76027496268
 10
-6825.629002875394
 20
-21342.6962185662
 10
-6825.216374701565
 20
-21341.67079742362
 10
-6824.737706488675
 20
-21340.68596465995
 10
-6824.475285834378
 20
-21340.20894439628
  0
LWPOLYLINE
  5
D6
330
2
100
AcDbEntity
  8
Access .1
100
AcDbPolyline
 90
       31
 70
     0
 43
0.0
 10
-6813.99997455508
 20
-21363.96919830253
 10
-6815.226353949613
 20
-21363.80608184745
 10
-6816.42203266055
 20
-21363.54445465018
 10
-6817.581975287502
 20
-21363.17177398612
 10
-6818.700475043363
 20
-21362.68034942558
 10
-6819.769963568752
 20
-21362.06777007987
 10
-6820.534032172268
 20
-21361.53084381034
 10
-6821.341893500394
 20
-21360.85872466972
 10
-6822.10660297305
 20
-21360.10722930838
 10
-6822.824071234768
 20
-21359.28053863456
 10
-6823.490178412503
 20
-21358.38390167167
 10
-6824.100926703519
 20
-21357.42354400565
 10
-6824.652318305081
 20
-21356.4064541619
 10
-6825.140691107816
 20
-21355.34035308768
 10
-6825.562535590238
 20
-21354.23341949393
 10
-6825.914647406644
 20
-21353.09422882011
 10
-6826.194218939846
 20
-21351.93150909354
 10
-6826.398930853909
 20
-21350.7541104119
 10
-6826.52686054141
 20
-21349.57063873221
 10
-6826.576726264065
 20
-21348.38954742362
 10
-6826.547887152738
 20
-21347.21883209159
 10
-6826.440343207424
 20
-21346.06581695487
 10
-6826.254826850003
 20
-21344.93721588065
 10
-6825.992986029691
 20
-21343.83870513846
 10
-6825.657262152738
 20
-21342.77495391776
 10
-6825.251042670315
 20
-21341.74941070487
 10
-6824.778783148831
 20
-21340.76415069511
 10
-6824.245915717191
 20
-21339.81969268729
 10
-6823.347874945707
 20
-21338.47633941581
 10
-6822.241154975003
 20
-21337.07234771659
 10
-6820.828313178129
 20
-21335.46666534354
  0
LWPOLYLINE
  5
D7
330
2
100
AcDbEntity
  8
Access .1
100
AcDbPolyline
 90
        4
 70
     0
 43
0.0
 10
-6824.475621527738
 20
-21340.20903594901
 10
-6823.099339789457
 20
-21339.69795806815
 10
-6822.431615180082
 20
-21339.38951690604
 10
-6821.781438178128
 20
-21339.04143340995
  0
LINE
  5
D8
330
2
100
AcDbEntity
  8
Access .1
100
AcDbLine
 10
-6835.425359076565
 20
-21368.73756988456
 30
0.0
 11
-6835.425359076565
 21
-21377.97829254081
 31
0.0
  0
LWPOLYLINE
  5
D9
330
2
100
AcDbEntity
  8
Access .1
100
AcDbPolyline
 90
        6
 70
     0
 43
0.0
 10
-6835.452916449613
 20
-21359.53874786307
 10
-6835.720860785549
 20
-21356.49544341971
 10
-6836.16650897891
 20
-21352.7804775994
 10
-6836.894810980862
 20
-21347.41725738456
 10
-6837.307225531644
 20
-21344.01155670096
 10
-6837.561406439847
 20
-21341.32210357596
  0
LWPOLYLINE
  5
DA
330
2
100
AcDbEntity
  8
Access .1
100
AcDbPolyline
 90
        7
 70
     0
 43
0.0
 10
-6835.452916449613
 20
-21359.53874786307
 10
-6835.720067328519
 20
-21356.50301177909
 10
-6836.164281195706
 20
-21352.79747589042
 10
-6836.889531439847
 20
-21347.45735748222
 10
-6837.302007025785
 20
-21344.05974395682
 10
-6837.556523627347
 20
-21341.38289459159
 10
-6837.740208930082
 20
-21338.43895538261
  0
ARC
  5
DB
330
2
100
AcDbEntity
  8
Access .1
100
AcDbCircle
 10
-6888.950780219144
 20
-21363.37721832206
 30
0.0
 40
53.63551712036133
100
AcDbArc
 50
359.9465973853436
 51
4.103134273240571
  0
LINE
  5
DC
330
2
100
AcDbEntity
  8
Access .1
100
AcDbLine
 10
-6835.31720477969
 20
-21363.97231109549
 30
0.0
 11
-6835.314976996487
 21
-21363.42720611503
 31
0.0
  0
ARC
  5
DD
330
2
100
AcDbEntity
  8
Access .1
100
AcDbCircle
 10
-6775.770329779691
 20
-21368.57549102713
 30
0.0
 40
59.65505599975585
100
AcDbArc
 50
178.7270626674972
 51
180.1540531046484
  0
LINE
  5
DE
330
2
100
AcDbEntity
  8
Access .1
100
AcDbLine
 10
-6835.410588568753
 20
-21367.25005157401
 30
0.0
 11
-6835.329808539457
 21
-21364.68688018729
 31
0.0
  0
ARC
  5
DF
330
2
100
AcDbEntity
  8
Access .1
100
AcDbCircle
 10
-6875.833440131254
 20
-21363.60973174979
 30
0.0
 40
40.51791381835937
100
AcDbArc
 50
358.4766348398862
 51
359.4872774753227
  0
LWPOLYLINE
  5
E0
330
2
100
AcDbEntity
  8
Access .1
100
AcDbPolyline
 90
        3
 70
     0
 43
0.0
 10
-6810.077184027737
 20
-21364.07652862479
 10
-6812.22363788516
 20
-21364.0675869744
 10
-6812.9303334418
 20
-21364.0441494744
  0
LINE
  5
E1
330
2
100
AcDbEntity
  8
Access .1
100
AcDbLine
 10
-6813.911595648831
 20
-21363.97749908378
 30
0.0
 11
-6813.736821478909
 21
-21363.99272735526
 31
0.0
  0
ARC
  5
E2
330
2
100
AcDbEntity
  8
Access .1
100
AcDbCircle
 10
-6811.925816840238
 20
-21341.89729888846
 30
0.0
 40
22.16958236694336
100
AcDbArc
 50
265.3144260209903
 51
267.4030229674959
  0
ARC
  5
E3
330
2
100
AcDbEntity
  8
Access .1
100
AcDbCircle
 10
-6811.925816840238
 20
-21341.89729888846
 30
0.0
 40
22.16958236694336
100
AcDbArc
 50
265.3144260209903
 51
267.4030229674959
  0
LINE
  5
E4
330
2
100
AcDbEntity
  8
Access .1
100
AcDbLine
 10
-6813.911595648831
 20
-21363.97749908378
 30
0.0
 11
-6813.736821478909
 21
-21363.99272735526
 31
0.0
  0
LINE
  5
E5
330
2
100
AcDbEntity
  8
Access .1
100
AcDbLine
 10
-6813.925359076566
 20
-21363.97624786307
 30
0.0
 11
-6813.911382025785
 21
-21363.97752960136
 31
0.0
  0
LINE
  5
E6
330
2
100
AcDbEntity
  8
Access .1
100
AcDbLine
 10
-6813.99997455508
 20
-21363.96919830253
 30
0.0
 11
-6813.925359076566
 21
-21363.97624786307
 31
0.0
  0
ARC
  5
E7
330
2
100
AcDbEntity
  8
Access .1
100
AcDbCircle
 10
-6811.917668646877
 20
-21341.81123931815
 30
0.0
 40
22.25600814819336
100
AcDbArc
 50
265.311578166337
 51
267.3923133449433
  0
LINE
  5
E8
330
2
100
AcDbEntity
  8
Access .1
100
AcDbLine
 10
-6813.925359076566
 20
-21363.97624786307
 30
0.0
 11
-6813.736790961332
 21
-21363.99272735526
 31
0.0
  0
LINE
  5
E9
330
2
100
AcDbEntity
  8
Access .1
100
AcDbLine
 10
-6813.99997455508
 20
-21363.96919830253
 30
0.0
 11
-6813.925359076566
 21
-21363.97624786307
 31
0.0
  0
LINE
  5
EA
330
2
100
AcDbEntity
  8
Access .1
100
AcDbLine
 10
-6820.828343695706
 20
-21335.46663482596
 30
0.0
 11
-6820.824315375394
 21
-21335.46840484549
 31
0.0
  0
ARC
  5
EB
330
2
100
AcDbEntity
  8
Access .1
100
AcDbCircle
 10
-6809.925359076565
 20
-21464.07646758964
 30
0.0
 40
100.0
100
AcDbArc
 50
85.98865964895081
 51
90.00000250446868
  0
ARC
  5
EC
330
2
100
AcDbEntity
  8
Access .1
100
AcDbCircle
 10
-6809.925359076565
 20
-21464.07668121268
 30
0.0
 40
100.0002212524414
100
AcDbArc
 50
85.98866646242882
 51
89.99999567427954
  0
LINE
  5
ED
330
2
100
AcDbEntity
  8
Access .1
100
AcDbLine
 10
-6810.077184027737
 20
-21364.07652862479
 30
0.0
 11
-6809.925359076565
 21
-21364.07646758963
 31
0.0
  0
LINE
  5
EE
330
2
100
AcDbEntity
  8
Access .1
100
AcDbLine
 10
-6810.077184027737
 20
-21364.07652862479
 30
0.0
 11
-6809.925359076565
 21
-21364.07646758963
 31
0.0
  0
LINE
  5
EF
330
2
100
AcDbEntity
  8
Access .1
100
AcDbLine
 10
-6802.929967230863
 20
-21364.32143218924
 30
0.0
 11
-6802.925969428128
 21
-21364.32170684745
 31
0.0
  0
LINE
  5
F0
330
2
100
AcDbEntity
  8
Access .1
100
AcDbLine
 10
-6802.929967230863
 20
-21364.32143218924
 30
0.0
 11
-6802.925969428128
 21
-21364.32170684745
 31
0.0
  0
LINE
  5
F1
330
2
100
AcDbEntity
  8
Access .1
100
AcDbLine
 10
-6845.207433051175
 20
-21331.02403839042
 30
0.0
 11
-6844.986668891019
 21
-21330.90904815604
 31
0.0
  0
LINE
  5
F2
330
2
100
AcDbEntity
  8
Access .1
100
AcDbLine
 10
-6845.207433051175
 20
-21331.02403839042
 30
0.0
 11
-6844.986668891019
 21
-21330.90904815604
 31
0.0
  0
LWPOLYLINE
  5
F3
330
2
100
AcDbEntity
  8
Access .1
100
AcDbPolyline
 90
        6
 70
     0
 43
0.0
 10
-6846.063390082425
 20
-21331.96861846854
 10
-6845.625310248441
 20
-21331.85948760917
 10
-6844.429143256253
 20
-21331.59056671073
 10
-6843.059697455472
 20
-21331.32781036307
 10
-6841.887303656644
 20
-21331.17168243339
 10
-6840.7125600043
 20
-21331.07002838065
  0
ARC
  5
F4
330
2
100
AcDbEntity
  8
Access .1
100
AcDbCircle
 10
-6853.13785297305
 20
-21315.46355255057
 30
0.0
 40
17.46909523010254
100
AcDbArc
 50
297.0104920278575
 51
305.6496071089365
  0
LINE
  5
F5
330
2
100
AcDbEntity
  8
Access .1
100
AcDbLine
 10
-6845.1344350043
 20
-21330.98631866385
 30
0.0
 11
-6844.985356635159
 21
-21330.90834625174
 31
0.0
  0
ARC
  5
F6
330
2
100
AcDbEntity
  8
Access .1
100
AcDbCircle
 10
-6853.13785297305
 20
-21315.46355255057
 30
0.0
 40
17.46909523010254
100
AcDbArc
 50
297.0104920278575
 51
305.6496071089365
  0
LWPOLYLINE
  5
F7
330
2
100
AcDbEntity
  8
Access .1
100
AcDbPolyline
 90
        3
 70
     0
 43
0.0
 10
-6849.636937445706
 20
-21332.76170928886
 10
-6852.709172553128
 20
-21333.35182769706
 10
-6855.900945014067
 20
-21333.90703399589
  0
ARC
  5
F8
330
2
100
AcDbEntity
  8
Access .1
100
AcDbCircle
 10
-6859.260686225003
 20
-21301.06773956229
 30
0.0
 40
33.12101364135742
100
AcDbArc
 50
286.8937321277406
 51
291.7987364719541
  0
ARC
  5
F9
330
2
100
AcDbEntity
  8
Access .1
100
AcDbCircle
 10
-6855.276707953518
 20
-21311.14140899589
 30
0.0
 40
22.28729438781738
100
AcDbArc
 50
291.9063347204497
 51
296.859619857957
  0
ARC
  5
FA
330
2
100
AcDbEntity
  8
Access .1
100
AcDbCircle
 10
-6859.261296576566
 20
-21301.0660610955
 30
0.0
 40
33.122802734375
100
AcDbArc
 50
286.8928456685226
 51
291.7986353222249
  0
ARC
  5
FB
330
2
100
AcDbEntity
  8
Access .1
100
AcDbCircle
 10
-6855.276707953518
 20
-21311.14140899589
 30
0.0
 40
22.28729438781738
100
AcDbArc
 50
291.9063347204497
 51
296.859619857957
  0
LINE
  5
FC
330
2
100
AcDbEntity
  8
Access .1
100
AcDbLine
 10
-6845.207310980862
 20
-21331.02397735526
 30
0.0
 11
-6845.206120795316
 21
-21331.02339752128
 31
0.0
  0
ARC
  5
FD
330
2
100
AcDbEntity
  8
Access .1
100
AcDbCircle
 10
-6827.925359076566
 20
-21329.07643707206
 30
0.0
 40
9.549976348876953
100
AcDbArc
 50
359.9999828007132
 51
175.0045550805511
  0
LWPOLYLINE
  5
FE
330
2
100
AcDbEntity
  8
Access .1
100
AcDbPolyline
 90
        8
 70
     0
 43
0.0
 10
-6836.336766547269
 20
-21321.69096954276
 10
-6837.140355414456
 20
-21322.74696929862
 10
-6837.887181586332
 20
-21323.85265167167
 10
-6838.625218695707
 20
-21324.9670010369
 10
-6839.656529730863
 20
-21326.40993316581
 10
-6840.209050482815
 20
-21327.09636505057
 10
-6841.097203558987
 20
-21328.06780059745
 10
-6841.728154486722
 20
-21328.66780670096
  0
LWPOLYLINE
  5
FF
330
2
100
AcDbEntity
  8
Access .1
100
AcDbPolyline
 90
        6
 70
     0
 43
0.0
 10
-6837.995244330471
 20
-21324.01509674003
 10
-6839.042393988676
 20
-21325.5673123162
 10
-6839.593633002348
 20
-21326.31914337089
 10
-6840.477727240628
 20
-21327.39662750175
 10
-6841.193883246488
 20
-21328.15651519706
 10
-6841.958257025784
 20
-21328.87026031425
  0
ARC
  5
100
330
2
100
AcDbEntity
  8
Access .1
100
AcDbCircle
 10
-6851.977513617581
 20
-21317.24410064628
 30
0.0
 40
15.34722805023193
100
AcDbArc
 50
308.9773488383544
 51
318.7886759378699
  0
LINE
  5
101
330
2
100
AcDbEntity
  8
Access .1
100
AcDbLine
 10
-6840.719090766019
 20
-21331.31160552909
 30
0.0
 11
-6840.713078803128
 21
-21331.06542022635
 31
0.0
  0
LINE
  5
102
330
2
100
AcDbEntity
  8
Access .1
100
AcDbLine
 10
-6840.719182318753
 20
-21331.31355865409
 30
0.0
 11
-6840.713170355863
 21
-21331.06514556815
 31
0.0
  0
ARC
  5
103
330
2
100
AcDbEntity
  8
Access .1
100
AcDbCircle
 10
-6842.97070819766
 20
-21330.35494049003
 30
0.0
 40
2.367635250091552
100
AcDbArc
 50
333.4109262864403
 51
341.6011084749535
  0
LINE
  5
104
330
2
100
AcDbEntity
  8
Access .1
100
AcDbLine
 10
-6840.724248236722
 20
-21331.1024685662
 30
0.0
 11
-6840.7125600043
 21
-21331.07002838065
 31
0.0
  0
ARC
  5
105
330
2
100
AcDbEntity
  8
Access .1
100
AcDbCircle
 10
-6851.807164496488
 20
-21317.41444976737
 30
0.0
 40
15.10752010345459
100
AcDbArc
 50
305.8609999512078
 51
308.8815243079403
  0
LINE
  5
106
330
2
100
AcDbEntity
  8
Access .1
100
AcDbLine
 10
-6842.324010199613
 20
-21329.17482574393
 30
0.0
 11
-6842.315892523831
 21
-21329.16826446463
 31
0.0
  0
ARC
  5
107
330
2
100
AcDbEntity
  8
Access .1
100
AcDbCircle
 10
-6851.807164496488
 20
-21317.41444976737
 30
0.0
 40
15.10752010345459
100
AcDbArc
 50
305.8609999512078
 51
308.8815243079403
  0
ARC
  5
108
330
2
100
AcDbEntity
  8
Access .1
100
AcDbCircle
 10
-6823.850285834378
 20
-21332.02199371268
 30
0.0
 40
16.20666313171386
100
AcDbArc
 50
140.3964630978071
 51
145.4998864891415
  0
ARC
  5
109
330
2
100
AcDbEntity
  8
Access .1
100
AcDbCircle
 10
-6823.835759467191
 20
-21332.03362090995
 30
0.0
 40
16.22525405883789
100
AcDbArc
 50
140.3974333814112
 51
145.4955688317137
  0
LINE
  5
10A
330
2
100
AcDbEntity
  8
Access .1
100
AcDbLine
 10
-6784.425359076566
 20
-21377.97853668143
 30
0.0
 11
-6784.425359076566
 21
-21371.38234527518
 31
0.0
  0
LINE
  5
10B
330
2
100
AcDbEntity
  8
Access .1
100
AcDbLine
 10
-6784.425359076566
 20
-21371.38234527518
 30
0.0
 11
-6784.425359076566
 21
-21377.97841461112
 31
0.0
  0
LWPOLYLINE
  5
10C
330
2
100
AcDbEntity
  8
Access .1
100
AcDbPolyline
 90
       10
 70
     0
 43
0.0
 10
-6788.048619574613
 20
-21366.49901397635
 10
-6786.995854682034
 20
-21366.77583892752
 10
-6786.254460639066
 20
-21367.06834991386
 10
-6785.721959418363
 20
-21367.3856716912
 10
-6785.258122748441
 20
-21367.80452545096
 10
-6784.890385932034
 20
-21368.33565338065
 10
-6784.6422475043
 20
-21368.95232208182
 10
-6784.490758246487
 20
-21369.71092803885
 10
-6784.429967230862
 20
-21370.6737576287
 10
-6784.425359076566
 20
-21371.37261016776
  0
LWPOLYLINE
  5
10D
330
2
100
AcDbEntity
  8
Access .1
100
AcDbPolyline
 90
       10
 70
     0
 43
0.0
 10
-6788.048619574613
 20
-21366.49901397635
 10
-6786.995854682034
 20
-21366.77583892752
 10
-6786.254460639066
 20
-21367.06834991386
 10
-6785.721959418363
 20
-21367.3856716912
 10
-6785.258122748441
 20
-21367.80452545096
 10
-6784.890385932034
 20
-21368.33565338065
 10
-6784.6422475043
 20
-21368.95232208182
 10
-6784.490758246487
 20
-21369.71092803885
 10
-6784.429967230862
 20
-21370.6737576287
 10
-6784.425359076566
 20
-21371.37261016776
  0
LINE
  5
10E
330
2
100
AcDbEntity
  8
Access .1
100
AcDbLine
 10
-6788.312749213284
 20
-21366.43990142752
 30
0.0
 11
-6788.048619574613
 21
-21366.49901397635
 31
0.0
  0
LINE
  5
10F
330
2
100
AcDbEntity
  8
Access .1
100
AcDbLine
 10
-6740.836339301175
 20
-21427.97707183768
 30
0.0
 11
-6738.868718451566
 21
-21427.97707183768
 31
0.0
  0
LINE
  5
110
330
2
100
AcDbEntity
  8
Access .1
100
AcDbLine
 10
-6738.61035663516
 20
-21427.97707183768
 30
0.0
 11
-6738.475346869535
 21
-21427.97707183768
 31
0.0
  0
LINE
  5
111
330
2
100
AcDbEntity
  8
Access .2
100
AcDbLine
 10
-6441.848698920316
 20
-21807.97820098807
 30
0.0
 11
-6441.848698920316
 21
-21729.60323913505
 31
0.0
  0
LINE
  5
112
330
2
100
AcDbEntity
  8
Access .2
100
AcDbLine
 10
-6564.624242133206
 20
-21807.97820098807
 30
0.0
 11
-6441.848698920316
 21
-21807.97820098807
 31
0.0
  0
LINE
  5
113
330
2
100
AcDbEntity
  8
Access .2
100
AcDbLine
 10
-6566.43018085391
 20
-21807.97820098807
 30
0.0
 11
-6564.624242133206
 21
-21807.97820098807
 31
0.0
  0
LWPOLYLINE
  5
114
330
2
100
AcDbEntity
  8
Access .2
100
AcDbPolyline
 90
        6
 70
     0
 43
0.0
 10
-6566.43018085391
 20
-21807.97820098807
 10
-6565.952031439846
 20
-21807.94647796561
 10
-6565.539433783597
 20
-21807.85993011405
 10
-6565.189458197659
 20
-21807.7303982537
 10
-6564.888097113675
 20
-21807.560888366
 10
-6564.625920600004
 20
-21807.34508331229
  0
LINE
  5
115
330
2
100
AcDbEntity
  8
Access .2
100
AcDbLine
 10
-6571.848698920316
 20
-21807.97820098807
 30
0.0
 11
-6566.43018085391
 21
-21807.97820098807
 31
0.0
  0
LINE
  5
116
330
2
100
AcDbEntity
  8
Access .2
100
AcDbLine
 10
-6565.055272406644
 20
-21807.37204559257
 30
0.0
 11
-6565.433354682034
 21
-21806.83797271659
 31
0.0
  0
LINE
  5
117
330
2
100
AcDbEntity
  8
Access .1
100
AcDbLine
 10
-6571.845494574613
 20
-21754.4427243035
 30
0.0
 11
-6571.849187201566
 21
-21463.14757354667
 31
0.0
  0
LWPOLYLINE
  5
118
330
2
100
AcDbEntity
  8
Access .1
100
AcDbPolyline
 90
       35
 70
     0
 43
0.0
 10
-6571.849187201566
 20
-21463.0575466912
 10
-6571.870793646879
 20
-21459.29057891776
 10
-6571.919804877346
 20
-21457.43923004081
 10
-6572.04669696719
 20
-21455.09447296073
 10
-6572.264470404691
 20
-21452.76991851737
 10
-6572.416386908597
 20
-21451.59251983573
 10
-6572.782689398831
 20
-21449.41512115409
 10
-6573.264928168362
 20
-21447.27358062675
 10
-6573.529546088284
 20
-21446.29839141776
 10
-6574.107793158598
 20
-21444.47859771659
 10
-6574.791203803129
 20
-21442.70168121268
 10
-6575.527348822659
 20
-21441.09169586112
 10
-6576.192509955472
 20
-21439.83247955253
 10
-6576.921269721097
 20
-21438.61568267753
 10
-6577.711400336331
 20
-21437.4501248162
 10
-6578.195256537504
 20
-21436.80251129081
 10
-6579.205937689846
 20
-21435.58519561698
 10
-6580.300175971096
 20
-21434.44084747245
 10
-6581.122014350004
 20
-21433.68153961112
 10
-6581.977422064847
 20
-21432.97109039237
 10
-6582.976659125394
 20
-21432.23195465018
 10
-6584.018132514066
 20
-21431.55284698416
 10
-6585.098485297269
 20
-21430.93605621268
 10
-6586.108037299222
 20
-21430.43300445487
 10
-6587.148686713284
 20
-21429.98149688651
 10
-6588.213628119534
 20
-21429.58226592948
 10
-6589.301213568752
 20
-21429.23366363456
 10
-6590.455540961331
 20
-21428.92314727713
 10
-6591.63330585391
 20
-21428.66390045096
 10
-6592.868779486721
 20
-21428.44771392752
 10
-6594.117863959379
 20
-21428.28014190604
 10
-6595.491948432034
 20
-21428.14748199393
 10
-6597.921147650784
 20
-21428.02013214042
 10
-6600.017674750394
 20
-21427.98381622245
 10
-6601.618108100002
 20
-21427.97728546073
  0
LINE
  5
119
330
2
100
AcDbEntity
  8
Access .2
100
AcDbLine
 10
-6441.848698920316
 20
-21729.60323150565
 30
0.0
 11
-6441.848698920316
 21
-21387.97820098807
 31
0.0
  0
LINE
  5
11A
330
2
100
AcDbEntity
  8
Access .2
100
AcDbLine
 10
-6441.848698920316
 20
-21729.60323150565
 30
0.0
 11
-6441.848698920316
 21
-21387.97820098807
 31
0.0
  0
LINE
  5
11B
330
2
100
AcDbEntity
  8
Access .2
100
AcDbLine
 10
-6441.848698920316
 20
-21729.05271728446
 30
0.0
 11
-6441.848698920316
 21
-21389.59151275565
 31
0.0
  0
LINE
  5
11C
330
2
100
AcDbEntity
  8
Access .2
100
AcDbLine
 10
-6441.848698920316
 20
-21386.22713287284
 30
0.0
 11
-6441.848698920316
 21
-21416.12996490409
 31
0.0
  0
LINE
  5
11D
330
2
100
AcDbEntity
  8
Access .2
100
AcDbLine
 10
-6441.848698920316
 20
-21416.12996490409
 30
0.0
 11
-6441.848698920316
 21
-21444.97820098807
 31
0.0
  0
LINE
  5
11E
330
2
100
AcDbEntity
  8
Access .2
100
AcDbLine
 10
-6441.848698920316
 20
-21376.70924957206
 30
0.0
 11
-6441.848698920316
 21
-21360.97820098807
 31
0.0
  0
LINE
  5
11F
330
2
100
AcDbEntity
  8
Access .2
100
AcDbLine
 10
-6441.848759955473
 20
-21387.98143585135
 30
0.0
 11
-6441.848698920316
 21
-21387.97820098807
 31
0.0
  0
LINE
  5
120
330
2
100
AcDbEntity
  8
Access .2
100
AcDbLine
 10
-6441.848698920316
 20
-21386.58983428885
 30
0.0
 11
-6441.848698920316
 21
-21386.22704132011
 31
0.0
  0
LINE
  5
121
330
2
100
AcDbEntity
  8
Access .2
100
AcDbLine
 10
-6441.848698920316
 20
-21389.59151275565
 30
0.0
 11
-6441.848698920316
 21
-21386.58983428885
 31
0.0
  0
LINE
  5
122
330
2
100
AcDbEntity
  8
Access .2
100
AcDbLine
 10
-6441.848698920316
 20
-21384.71245391776
 30
0.0
 11
-6441.852238959379
 21
-21379.52834136893
 31
0.0
  0
LINE
  5
123
330
2
100
AcDbEntity
  8
Access .2
100
AcDbLine
 10
-6441.848698920316
 20
-21387.97820098807
 30
0.0
 11
-6441.848698920316
 21
-21384.71245391776
 31
0.0
  0
LINE
  5
124
330
2
100
AcDbEntity
  8
Access .2
100
AcDbLine
 10
-6441.836003607815
 20
-21379.5282498162
 30
0.0
 11
-6441.848698920316
 21
-21376.70924957206
 31
0.0
  0
LINE
  5
125
330
2
100
AcDbEntity
  8
Access .2
100
AcDbLine
 10
-6441.852238959379
 20
-21379.52834136893
 30
0.0
 11
-6441.836003607815
 21
-21379.5282498162
 31
0.0
  0
LINE
  5
126
330
2
100
AcDbEntity
  8
Access .2
100
AcDbLine
 10
-6441.836003607815
 20
-21379.5282498162
 30
0.0
 11
-6441.781194037503
 21
-21386.22655303886
 31
0.0
  0
LINE
  5
127
330
2
100
AcDbEntity
  8
Access .2
100
AcDbLine
 10
-6441.848698920316
 20
-21386.22704132011
 30
0.0
 11
-6441.781194037503
 21
-21386.22655303886
 31
0.0
  0
LINE
  5
128
330
2
100
AcDbEntity
  8
Access .2
100
AcDbLine
 10
-6441.848759955473
 20
-21387.97975738456
 30
0.0
 11
-6441.848698920316
 21
-21387.97820098807
 31
0.0
  0
LINE
  5
129
330
2
100
AcDbEntity
  8
Access .2
100
AcDbLine
 10
-6441.848698920316
 20
-21387.97820098807
 30
0.0
 11
-6441.848698920316
 21
-21386.22728546073
 31
0.0
  0
LINE
  5
12A
330
2
100
AcDbEntity
  8
Access .1
  6
HIDDEN
100
AcDbLine
 10
-6319.74033565687
 20
-20830.39515873953
 30
0.0
 11
-6318.320967216842
 21
-21235.39267156305
 31
0.0
  0
LINE
  5
12B
330
2
100
AcDbEntity
  8
Access .1
  6
HIDDEN
100
AcDbLine
 10
-6388.320537334486
 20
-21235.6379945033
 30
0.0
 11
-6389.739905774515
 21
-20830.64048167978
 31
0.0
  0
LINE
  5
12C
330
2
100
AcDbEntity
  8
Access .1
  6
HIDDEN
100
AcDbLine
 10
-6441.848698920316
 20
-21375.23640627691
 30
0.0
 11
-6399.000070270581
 21
-21375.17961217159
 31
0.0
  0
LINE
  5
12D
330
2
100
AcDbEntity
  8
Access .1
  6
HIDDEN
100
AcDbLine
 10
-6318.101911422711
 20
-21432.42530537252
 30
0.0
 11
-6318.328226007173
 21
-21367.84951149274
 31
0.0
  0
LINE
  5
12E
330
2
100
AcDbEntity
  8
Access .1
  6
HIDDEN
100
AcDbLine
 10
-6399.009203434473
 20
-21368.28904587456
 30
0.0
 11
-6398.924051453127
 21
-21432.53243181455
 31
0.0
  0
LINE
  5
12F
330
2
100
AcDbEntity
  8
Access .1
  6
HIDDEN
100
AcDbLine
 10
-6398.926226269882
 20
-21432.53243469719
 30
0.0
 11
-6318.101911422711
 21
-21432.42530537252
 31
0.0
  0
LINE
  5
130
330
2
100
AcDbEntity
  8
Access .1
  6
HIDDEN
100
AcDbLine
 10
-6325.333308278685
 20
-21260.417400789
 30
0.0
 11
-6324.9555159916
 21
-21368.21530041706
 31
0.0
  0
LINE
  5
131
330
2
100
AcDbEntity
  8
Access .1
  6
HIDDEN
100
AcDbLine
 10
-6381.132965601036
 20
-21260.61295821852
 30
0.0
 11
-6380.755663926171
 21
-21368.27086831084
 31
0.0
  0
LINE
  5
132
330
2
100
AcDbEntity
  8
Access .1
  6
HIDDEN
100
AcDbLine
 10
-6318.321216780308
 20
-21368.20869373146
 30
0.0
 11
-6399.009203434473
 21
-21368.28904587456
 31
0.0
  0
LINE
  5
133
330
2
100
AcDbEntity
  8
Access .1
  6
HIDDEN
100
AcDbLine
 10
-6323.303413443799
 20
-21240.41016392432
 30
0.0
 11
-6383.303044973208
 21
-21240.62044073026
 31
0.0
  0
LINE
  5
134
330
2
100
AcDbEntity
  8
Access .1
  6
HIDDEN
100
AcDbLine
 10
-6383.232952704565
 20
-21260.62031790672
 30
0.0
 11
-6323.233321175155
 21
-21260.41004110079
 31
0.0
  0
LINE
  5
135
330
2
100
AcDbEntity
  8
Access .1
  6
HIDDEN
100
AcDbLine
 10
-6383.303044973208
 20
-21240.62044073026
 30
0.0
 11
-6383.232952704565
 21
-21260.62031790672
 31
0.0
  0
ARC
  5
136
330
2
100
AcDbEntity
  8
Access .1
  6
HIDDEN
100
AcDbCircle
 10
-6379.786017899612
 20
-21235.60808412817
 30
0.0
 40
5.000000000000418
100
AcDbArc
 50
180.7007999694445
 51
270.20079996951
  0
ARC
  5
137
330
2
100
AcDbEntity
  8
Access .1
  6
HIDDEN
100
AcDbCircle
 10
-6383.32056804037
 20
-21235.62047143614
 30
0.0
 40
5.000000000000376
100
AcDbArc
 50
180.2007999695621
 51
270.20079996951
  0
LINE
  5
138
330
2
100
AcDbEntity
  8
Access .1
  6
HIDDEN
100
AcDbLine
 10
-6323.233321175155
 20
-21260.41004110079
 30
0.0
 11
-6323.303413443799
 21
-21240.41016392432
 31
0.0
  0
ARC
  5
139
330
2
100
AcDbEntity
  8
Access .1
  6
HIDDEN
100
AcDbCircle
 10
-6323.32093651096
 20
-21235.41019463021
 30
0.0
 40
4.999999999999921
100
AcDbArc
 50
270.20079996951
 51
0.2007999695621689
  0
ARC
  5
13A
330
2
100
AcDbEntity
  8
Access .1
  6
HIDDEN
100
AcDbCircle
 10
-6326.855486651716
 20
-21235.42258193818
 30
0.0
 40
4.999999999999921
100
AcDbArc
 50
270.20079996951
 51
359.7007999694989
  0
ARC
  5
13B
330
2
100
AcDbEntity
  8
Access .1
  6
HIDDEN
100
AcDbCircle
 10
-6331.343870661588
 20
-21137.43771024668
 30
0.0
 40
9.99999999999984
100
AcDbArc
 50
270.20079996951
 51
359.7007999694989
  0
ARC
  5
13C
330
2
100
AcDbEntity
  8
Access .1
  6
HIDDEN
100
AcDbCircle
 10
-6375.984538122446
 20
-21137.59415949026
 30
0.0
 40
9.999999999999927
100
AcDbArc
 50
180.7007999694445
 51
270.20079996951
  0
ARC
  5
13D
330
2
100
AcDbEntity
  8
Access .1
  6
HIDDEN
100
AcDbCircle
 10
-6339.731654301071
 20
-21153.91275860082
 30
0.0
 40
5.554448761245819
100
AcDbArc
 50
213.827229105581
 51
326.574370833509
  0
LINE
  5
13E
330
2
100
AcDbEntity
  8
Access .1
  6
HIDDEN
100
AcDbLine
 10
-6375.949491988123
 20
-21147.5940980785
 30
0.0
 11
-6331.308824527265
 21
-21147.43764883491
 31
0.0
  0
LINE
  5
13F
330
2
100
AcDbEntity
  8
Access .1
  6
HIDDEN
100
AcDbLine
 10
-6331.620531829998
 20
-21149.93875660826
 30
0.0
 11
-6375.620261618232
 21
-21150.09295959927
 31
0.0
  0
LINE
  5
140
330
2
100
AcDbEntity
  8
Access .1
  6
HIDDEN
100
AcDbLine
 10
-6334.11000263676
 20
-21152.94749971831
 30
0.0
 11
-6373.109763130877
 21
-21153.08417964216
 31
0.0
  0
ARC
  5
141
330
2
100
AcDbEntity
  8
Access .1
  6
HIDDEN
100
AcDbCircle
 10
-6367.481483883423
 20
-21154.01001162356
 30
0.0
 40
5.554448761245819
100
AcDbArc
 50
213.827229105581
 51
326.574370833509
  0
LINE
  5
142
330
2
100
AcDbEntity
  8
Access .1
  6
HIDDEN
100
AcDbLine
 10
-6373.109763130877
 20
-21153.08417964216
 30
0.0
 11
-6373.120276971173
 21
-21150.08419806569
 31
0.0
  0
LINE
  5
143
330
2
100
AcDbEntity
  8
Access .1
  6
HIDDEN
100
AcDbLine
 10
-6375.620261618232
 20
-21150.09295959927
 30
0.0
 11
-6375.629023151812
 21
-21147.59297495221
 31
0.0
  0
LINE
  5
144
330
2
100
AcDbEntity
  8
Access .1
  6
HIDDEN
100
AcDbLine
 10
-6372.095675574379
 20
-21157.10212030219
 30
0.0
 11
-6372.109769272054
 21
-21153.08067502873
 31
0.0
  0
LINE
  5
145
330
2
100
AcDbEntity
  8
Access .1
  6
HIDDEN
100
AcDbLine
 10
-6344.345845992027
 20
-21157.00486727944
 30
0.0
 11
-6344.359939689701
 21
-21152.98342200599
 31
0.0
  0
LINE
  5
146
330
2
100
AcDbEntity
  8
Access .1
  6
HIDDEN
100
AcDbLine
 10
-6362.845732380261
 20
-21157.06970262794
 30
0.0
 11
-6362.859826077936
 21
-21153.04825735448
 31
0.0
  0
LINE
  5
147
330
2
100
AcDbEntity
  8
Access .1
  6
HIDDEN
100
AcDbLine
 10
-6362.837046090626
 20
-21159.54821743684
 30
0.0
 11
-6367.462017687685
 21
-21159.56442627396
 31
0.0
  0
ARC
  5
148
330
2
100
AcDbEntity
  8
Access .1
  6
HIDDEN
100
AcDbCircle
 10
-6353.651938245005
 20
-21141.01591337435
 30
0.0
 40
18.50000000000018
100
AcDbArc
 50
240.2007999694741
 51
300.2007999695913
  0
LINE
  5
149
330
2
100
AcDbEntity
  8
Access .1
  6
HIDDEN
100
AcDbLine
 10
-6339.712188105334
 20
-21159.46717325122
 30
0.0
 11
-6362.837046090626
 21
-21159.54821743684
 31
0.0
  0
LINE
  5
14A
330
2
100
AcDbEntity
  8
Access .1
  6
HIDDEN
100
AcDbLine
 10
-6334.11000263676
 20
-21152.94749971831
 30
0.0
 11
-6334.120516477057
 21
-21149.94751814184
 31
0.0
  0
LINE
  5
14B
330
2
100
AcDbEntity
  8
Access .1
  6
HIDDEN
100
AcDbLine
 10
-6335.09590279791
 20
-21156.97244960519
 30
0.0
 11
-6335.109996495584
 21
-21152.95100433174
 31
0.0
  0
LINE
  5
14C
330
2
100
AcDbEntity
  8
Access .1
  6
HIDDEN
100
AcDbLine
 10
-6331.620531829998
 20
-21149.93875660826
 30
0.0
 11
-6331.629293363579
 21
-21147.4387719612
 31
0.0
  0
LINE
  5
14D
330
2
100
AcDbEntity
  8
Access .1
100
AcDbLine
 10
-6454.266646520034
 20
-20863.22262388943
 30
0.0
 11
-6454.266646520034
 21
-20692.73377808672
 31
0.0
  0
LINE
  5
14E
330
2
100
AcDbEntity
  8
Access .1
100
AcDbLine
 10
-6459.266646520035
 20
-20863.22262388943
 30
0.0
 11
-6459.266646520035
 21
-20692.73377808672
 31
0.0
  0
LINE
  5
14F
330
2
100
AcDbEntity
  8
Access .1
  6
HIDDEN
100
AcDbLine
 10
-6373.159741044871
 20
-20734.98224561713
 30
0.0
 11
-6373.159741044871
 21
-20715.13978745881
 31
0.0
  0
LINE
  5
150
330
2
100
AcDbEntity
  8
Access .1
  6
HIDDEN
100
AcDbLine
 10
-6337.124143370832
 20
-20715.13978745881
 30
0.0
 11
-6337.124143370832
 21
-20734.98224561713
 31
0.0
  0
LINE
  5
151
330
2
100
AcDbEntity
  8
Access .1
  6
HIDDEN
100
AcDbLine
 10
-6346.137026373026
 20
-20735.8876679748
 30
0.0
 11
-6346.137026373026
 21
-20715.13978745881
 31
0.0
  0
LINE
  5
152
330
2
100
AcDbEntity
  8
Access .1
  6
HIDDEN
100
AcDbLine
 10
-6364.146858042676
 20
-20735.61709526748
 30
0.0
 11
-6364.146858042676
 21
-20715.13978745881
 31
0.0
  0
LINE
  5
153
330
2
100
AcDbEntity
  8
Access .1
100
AcDbLine
 10
-6454.266646520034
 20
-20863.22262388943
 30
0.0
 11
-6459.266646520035
 21
-20863.22262388943
 31
0.0
  0
LINE
  5
154
330
2
100
AcDbEntity
  8
Access .1
100
AcDbLine
 10
-6459.266646520035
 20
-20795.24272714327
 30
0.0
 11
-6484.266646520035
 21
-20795.24272714327
 31
0.0
  0
LINE
  5
155
330
2
100
AcDbEntity
  8
Access .1
100
AcDbLine
 10
-6484.266646520035
 20
-20760.71367483288
 30
0.0
 11
-6459.266646520035
 21
-20760.71367483288
 31
0.0
  0
LINE
  5
156
330
2
100
AcDbEntity
  8
Access .1
100
AcDbLine
 10
-6484.266646520035
 20
-20795.24272714327
 30
0.0
 11
-6484.266646520035
 21
-20760.71367483288
 31
0.0
  0
LINE
  5
157
330
2
100
AcDbEntity
  8
Access .1
100
AcDbLine
 10
-6459.266646520035
 20
-20745.95809773423
 30
0.0
 11
-6459.266646520035
 21
-20780.48715004462
 31
0.0
  0
LINE
  5
158
330
2
100
AcDbEntity
  8
Access .1
  6
HIDDEN
100
AcDbLine
 10
-6382.91152173953
 20
-20830.61655068641
 30
0.0
 11
-6377.939633276522
 21
-20756.11894706539
 31
0.0
  0
LINE
  5
159
330
2
100
AcDbEntity
  8
Access .1
  6
HIDDEN
100
AcDbLine
 10
-6384.739936480396
 20
-20830.62295861263
 30
0.0
 11
-6385.016825027701
 21
-20751.61657110601
 31
0.0
  0
LINE
  5
15A
330
2
100
AcDbEntity
  8
Access .1
  6
HIDDEN
100
AcDbLine
 10
-6324.740304950988
 20
-20830.41268180669
 30
0.0
 11
-6325.017193498292
 21
-20751.40629430008
 31
0.0
  0
LINE
  5
15B
330
2
100
AcDbEntity
  8
Access .1
  6
HIDDEN
100
AcDbLine
 10
-6326.568719691854
 20
-20830.41908973291
 30
0.0
 11
-6332.062653420146
 21
-20755.95816499817
 31
0.0
  0
LINE
  5
15C
330
2
100
AcDbEntity
  8
Access .1
  6
HIDDEN
100
AcDbLine
 10
-6340.722683625003
 20
-20835.46872491572
 30
0.0
 11
-6338.740218974517
 21
-20830.46174639474
 31
0.0
  0
LINE
  5
15D
330
2
100
AcDbEntity
  8
Access .1
  6
HIDDEN
100
AcDbLine
 10
-6389.739905774515
 20
-20830.64048167978
 30
0.0
 11
-6370.740022456868
 21
-20830.57389402457
 31
0.0
  0
LINE
  5
15E
330
2
100
AcDbEntity
  8
Access .1
  6
HIDDEN
100
AcDbLine
 10
-6374.768034799619
 20
-20822.58796160771
 30
0.0
 11
-6376.768022517266
 21
-20822.59497083458
 31
0.0
  0
LINE
  5
15F
330
2
100
AcDbEntity
  8
Access .1
  6
HIDDEN
100
AcDbLine
 10
-6374.739997892162
 20
-20830.5879124783
 30
0.0
 11
-6374.768034799619
 21
-20822.58796160771
 31
0.0
  0
LINE
  5
160
330
2
100
AcDbEntity
  8
Access .1
  6
HIDDEN
100
AcDbLine
 10
-6376.739985609809
 20
-20830.59492170517
 30
0.0
 11
-6376.768022517266
 21
-20822.59497083458
 31
0.0
  0
LINE
  5
161
330
2
100
AcDbEntity
  8
Access .1
  6
HIDDEN
100
AcDbLine
 10
-6370.740022456868
 20
-20830.57389402457
 30
0.0
 11
-6368.722511672061
 21
-20835.56685409183
 31
0.0
  0
LINE
  5
162
330
2
100
AcDbEntity
  8
Access .1
  6
HIDDEN
100
AcDbLine
 10
-6368.722511672061
 20
-20835.56685409183
 30
0.0
 11
-6340.722683625003
 21
-20835.46872491572
 31
0.0
  0
LINE
  5
163
330
2
100
AcDbEntity
  8
Access .1
  6
HIDDEN
100
AcDbLine
 10
-6338.740218974517
 20
-20830.46174639474
 30
0.0
 11
-6319.74033565687
 21
-20830.39515873953
 31
0.0
  0
LINE
  5
164
330
2
100
AcDbEntity
  8
Access .1
  6
HIDDEN
100
AcDbLine
 10
-6332.740255821575
 20
-20830.44071871415
 30
0.0
 11
-6332.768292729033
 21
-20822.44076784356
 31
0.0
  0
LINE
  5
165
330
2
100
AcDbEntity
  8
Access .1
  6
HIDDEN
100
AcDbLine
 10
-6334.740243539222
 20
-20830.44772794102
 30
0.0
 11
-6334.768280446681
 21
-20822.44777707043
 31
0.0
  0
LINE
  5
166
330
2
100
AcDbEntity
  8
Access .1
  6
HIDDEN
100
AcDbLine
 10
-6334.768280446681
 20
-20822.44777707043
 30
0.0
 11
-6332.768292729033
 21
-20822.44076784356
 31
0.0
  0
LINE
  5
167
330
2
100
AcDbEntity
  8
Access .1
  6
HIDDEN
100
AcDbLine
 10
-6332.768292729033
 20
-20822.44076784356
 30
0.0
 11
-6334.768280446681
 21
-20822.44777707043
 31
0.0
  0
LINE
  5
168
330
2
100
AcDbEntity
  8
Access .1
  6
HIDDEN
100
AcDbLine
 10
-6344.527587585646
 20
-20748.47465268554
 30
0.0
 11
-6328.027688915059
 21
-20748.41682656391
 31
0.0
  0
LINE
  5
169
330
2
100
AcDbEntity
  8
Access .1
  6
HIDDEN
100
AcDbLine
 10
-6337.124143370832
 20
-20734.98224561713
 30
0.0
 11
-6342.124143370833
 21
-20736.98224561713
 31
0.0
  0
ARC
  5
16A
330
2
100
AcDbEntity
  8
Access .1
  6
HIDDEN
100
AcDbCircle
 10
-6342.315549287967
 20
-20726.21823810536
 30
0.0
 40
10.14604371495249
100
AcDbArc
 50
247.8738549093828
 51
299.0383823989142
  0
LINE
  5
16B
330
2
100
AcDbEntity
  8
Access .1
  6
HIDDEN
100
AcDbLine
 10
-6372.978904988856
 20
-20751.58482479356
 30
0.0
 11
-6337.055040345816
 21
-20751.45892476183
 31
0.0
  0
LINE
  5
16C
330
2
100
AcDbEntity
  8
Access .1
  6
HIDDEN
100
AcDbLine
 10
-6368.15974104487
 20
-20736.98224561713
 30
0.0
 11
-6373.159741044871
 21
-20734.98224561713
 31
0.0
  0
LINE
  5
16D
330
2
100
AcDbEntity
  8
Access .1
  6
HIDDEN
100
AcDbLine
 10
-6382.027357291526
 20
-20748.60607568925
 30
0.0
 11
-6365.527458620938
 21
-20748.54824956762
 31
0.0
  0
ARC
  5
16E
330
2
100
AcDbEntity
  8
Access .1
  6
HIDDEN
100
AcDbCircle
 10
-6367.968335127735
 20
-20726.21823810536
 30
0.0
 40
10.1460437149524
100
AcDbArc
 50
240.9616176010858
 51
292.1261450906172
  0
ARC
  5
16F
330
2
100
AcDbEntity
  8
Access .1
  6
HIDDEN
100
AcDbCircle
 10
-6372.961381921697
 20
-20756.58479408768
 30
0.0
 40
4.999999999999919
100
AcDbArc
 50
90.20079996951004
 51
174.6540329253019
  0
ARC
  5
170
330
2
100
AcDbEntity
  8
Access .1
  6
HIDDEN
100
AcDbCircle
 10
-6382.016843451231
 20
-20751.60605726571
 30
0.0
 40
2.999999999999953
100
AcDbArc
 50
90.20079996951004
 51
180.2007999695621
  0
LINE
  5
171
330
2
100
AcDbEntity
  8
Access .1
  6
HIDDEN
100
AcDbLine
 10
-6344.51703714969
 20
-20751.48507633666
 30
0.0
 11
-6344.567864277172
 21
-20736.98224561713
 31
0.0
  0
LINE
  5
172
330
2
100
AcDbEntity
  8
Access .1
  6
HIDDEN
100
AcDbLine
 10
-6365.516908184982
 20
-20751.55867321873
 30
0.0
 11
-6365.56799324267
 21
-20736.98224561713
 31
0.0
  0
ARC
  5
173
330
2
100
AcDbEntity
  8
Access .1
  6
HIDDEN
100
AcDbCircle
 10
-6354.655793737293
 20
-20703.39341900391
 30
0.0
 40
33.59234456819518
100
AcDbArc
 50
253.5883490446648
 51
284.6902014427836
  0
LINE
  5
174
330
2
100
AcDbEntity
  8
Access .1
  6
HIDDEN
100
AcDbLine
 10
-6342.124143370833
 20
-20736.98224561713
 30
0.0
 11
-6368.15974104487
 21
-20736.98224561713
 31
0.0
  0
ARC
  5
175
330
2
100
AcDbEntity
  8
Access .1
  6
HIDDEN
100
AcDbCircle
 10
-6337.037517278655
 20
-20756.45889405595
 30
0.0
 40
4.999999999999734
100
AcDbArc
 50
5.747567013809399
 51
90.20079996951004
  0
ARC
  5
176
330
2
100
AcDbEntity
  8
Access .1
  6
HIDDEN
100
AcDbCircle
 10
-6328.017175074762
 20
-20751.41680814038
 30
0.0
 40
2.99999999999995
100
AcDbArc
 50
0.2007999695621689
 51
90.20079996951004
  0
LINE
  5
177
330
2
100
AcDbEntity
  8
Access .1
100
AcDbLine
 10
-6459.266646520035
 20
-20692.73377808672
 30
0.0
 11
-6454.266646520034
 21
-20692.73377808672
 31
0.0
  0
LINE
  5
178
330
2
100
AcDbEntity
  8
Access .1
  6
HIDDEN
100
AcDbLine
 10
-6373.159741044871
 20
-20715.13978745881
 30
0.0
 11
-6337.124143370832
 21
-20715.13978745881
 31
0.0
  0
LINE
  5
179
330
2
100
AcDbEntity
  8
Access .1
  6
HIDDEN
100
AcDbLine
 10
-6342.251492282375
 20
-20715.13978745881
 30
0.0
 11
-6342.251492282375
 21
-20713.07141746017
 31
0.0
  0
LINE
  5
17A
330
2
100
AcDbEntity
  8
Access .1
  6
HIDDEN
100
AcDbLine
 10
-6345.017306050967
 20
-20713.07141746017
 30
0.0
 11
-6345.017306050967
 21
-20706.56407431488
 31
0.0
  0
LINE
  5
17B
330
2
100
AcDbEntity
  8
Access .1
  6
HIDDEN
100
AcDbLine
 10
-6368.721356631882
 20
-20713.07141746017
 30
0.0
 11
-6368.721356631882
 21
-20715.13978745881
 31
0.0
  0
LINE
  5
17C
330
2
100
AcDbEntity
  8
Access .1
  6
HIDDEN
100
AcDbLine
 10
-6365.266578364735
 20
-20713.07141746017
 30
0.0
 11
-6365.266578364735
 21
-20706.56407431488
 31
0.0
  0
LINE
  5
17D
330
2
100
AcDbEntity
  8
Access .1
  6
HIDDEN
100
AcDbLine
 10
-6342.251492282375
 20
-20713.07141746017
 30
0.0
 11
-6368.721356631882
 21
-20713.07141746017
 31
0.0
  0
LINE
  5
17E
330
2
100
AcDbEntity
  8
Access .1
  6
HIDDEN
100
AcDbLine
 10
-6368.721356631882
 20
-20715.13978745881
 30
0.0
 11
-6342.251492282375
 21
-20715.13978745881
 31
0.0
  0
LINE
  5
17F
330
2
100
AcDbEntity
  8
Access .1
  6
HIDDEN
100
AcDbLine
 10
-6441.848698920316
 20
-21430.39346725837
 30
0.0
 11
-6398.927123993949
 21
-21430.21433630153
 31
0.0
  0
LINE
  5
180
330
2
100
AcDbEntity
  8
Access Grid
100
AcDbLine
 10
-6827.521947211332
 20
-21377.97820098807
 30
0.0
 11
-6682.111114466389
 21
-20553.31238886621
 31
0.0
  0
LINE
  5
183
330
2
100
AcDbEntity
  8
Access .2
100
AcDbLine
 10
-6778.881933925347
 20
-21159.71468276474
 30
0.0
 11
-6743.616537783653
 21
-20959.71468276474
 31
0.0
  0
LINE
  5
184
330
2
100
AcDbEntity
  8
Access .2
100
AcDbLine
 10
-6748.540576548714
 20
-20958.84644187641
 30
0.0
 11
-6743.616537783653
 21
-20959.71468276474
 31
0.0
  0
ARC
  5
185
330
2
100
AcDbEntity
  8
Access .2
100
AcDbCircle
 10
-6749.408817437049
 20
-20963.77048064147
 30
0.0
 40
5.0
100
AcDbArc
 50
80.00000000000641
 51
169.999999999995
  0
LINE
  5
186
330
2
100
AcDbEntity
  8
Access .2
100
AcDbLine
 10
-6787.861770567136
 20
-21153.05416222301
 30
0.0
 11
-6754.332856202108
 21
-20962.90223975314
 31
0.0
  0
LINE
  5
187
330
2
100
AcDbEntity
  8
Access .2
100
AcDbLine
 10
-6783.805972690409
 20
-21158.84644187641
 30
0.0
 11
-6778.881933925347
 21
-21159.71468276474
 31
0.0
  0
ARC
  5
188
330
2
100
AcDbEntity
  8
Access .2
100
AcDbCircle
 10
-6782.937731802075
 20
-21153.92240311135
 30
0.0
 40
5.0
100
AcDbArc
 50
169.9999999999949
 51
260.0000000000064
  0
ENDSEC
  0
SECTION
  2
OBJECTS
  0
DICTIONARY
  5
9
330
0
100
AcDbDictionary
281
     1
  3
ACAD_COLOR
350
3B
  3
ACAD_GROUP
350
36
  3
ACAD_LAYOUT
350
F
  3
ACAD_MATERIAL
350
B
  3
ACAD_MLINESTYLE
350
37
  3
ACAD_PLOTSETTINGS
350
38
  3
ACAD_PLOTSTYLENAME
350
8
  3
ACAD_TABLESTYLE
350
3C
  3
ACAD_VISUALSTYLE
350
28
  3
AcDbVariableDictionary
350
1A4
  0
DICTIONARY
  5
29
330
25
100
AcDbDictionary
280
     1
281
     1
  0
DICTIONARY
  5
18
330
17
100
AcDbDictionary
280
     1
281
     1
  3
ACAD_LAYERFILTERS
360
19
  3
ACAD_LAYERSTATES
360
1A
  3
ACLYDICTIONARY
360
1B
  0
DICTIONARY
  5
3
330
2
100
AcDbDictionary
280
     1
281
     1
  3
ACAD_SORTENTS
360
189
  0
DICTIONARY
  5
3B
102
{ACAD_REACTORS
330
9
102
}
330
9
100
AcDbDictionary
281
     1
  0
DICTIONARY
  5
36
102
{ACAD_REACTORS
330
9
102
}
330
9
100
AcDbDictionary
281
     1
  0
DICTIONARY
  5
F
102
{ACAD_REACTORS
330
9
102
}
330
9
100
AcDbDictionary
281
     1
  3
Layout1
350
14
  3
Model
350
E
  0
DICTIONARY
  5
B
102
{ACAD_REACTORS
330
9
102
}
330
9
100
AcDbDictionary
281
     1
  3
ByBlock
350
3A
  3
ByLayer
350
39
  3
Global
350
A
  0
DICTIONARY
  5
37
102
{ACAD_REACTORS
330
9
102
}
330
9
100
AcDbDictionary
281
     1
  3
Standard
350
3F
  0
DICTIONARY
  5
38
102
{ACAD_REACTORS
330
9
102
}
330
9
100
AcDbDictionary
281
     1
  0
ACDBDICTIONARYWDFLT
  5
8
102
{ACAD_REACTORS
330
9
102
}
330
9
100
AcDbDictionary
281
     1
  3
Normal
350
7
100
AcDbDictionaryWithDefault
340
7
  0
DICTIONARY
  5
3C
102
{ACAD_REACTORS
330
9
102
}
330
9
100
AcDbDictionary
281
     1
  3
Standard
350
40
  0
DICTIONARY
  5
28
102
{ACAD_REACTORS
330
9
102
}
330
9
100
AcDbDictionary
281
     1
  3
2dWireframe
350
27
  3
3D Hidden
350
1AC
  3
3dWireframe
350
42
  3
Basic
350
1AB
  3
Brighten
350
1AF
  3
ColorChange
350
1B3
  3
Conceptual
350
1AD
  3
Dim
350
1AE
  3
Facepattern
350
1B2
  3
Flat
350
1A7
  3
FlatWithEdges
350
1A8
  3
Gouraud
350
1A9
  3
GouraudWithEdges
350
1AA
  3
Linepattern
350
1B1
  3
Realistic
350
41
  3
Thicken
350
1B0
  0
DICTIONARY
  5
1A4
102
{ACAD_REACTORS
330
9
102
}
330
9
100
AcDbDictionary
281
     1
  3
CTABLESTYLE
350
1A5
  0
DICTIONARY
  5
19
102
{ACAD_REACTORS
330
18
102
}
330
18
100
AcDbDictionary
281
     1
  0
DICTIONARY
  5
1A
102
{ACAD_REACTORS
330
18
102
}
330
18
100
AcDbDictionary
281
     1
  0
DICTIONARY
  5
1B
102
{ACAD_REACTORS
330
18
102
}
330
18
100
AcDbDictionary
281
     1
1001
ACAD
1000
<All
  0
SORTENTSTABLE
  5
189
102
{ACAD_REACTORS
330
3
102
}
330
3
100
AcDbSortentsTable
330
2
  0
LAYOUT
  5
14
102
{ACAD_XDICTIONARY
360
15
102
}
102
{ACAD_REACTORS
330
F
102
}
330
F
100
AcDbPlotSettings
  1

  2
none_device
  4
ISO_A4_(210.00_x_297.00_MM)
  6

 40
7.5
 41
20.0
 42
7.5
 43
20.0
 44
210.0
 45
297.0
 46
0.0
 47
0.0
 48
0.0
 49
0.0
140
0.0
141
0.0
142
1.0
143
1.0
 70
   688
 72
     1
 73
     1
 74
     5
  7
LCG Normal.ctb
 75
    16
147
1.0
 76
     0
 77
     2
 78
   300
148
0.0
149
0.0
100
AcDbLayout
  1
Layout1
 70
     1
 71
     1
 10
-20.0
 20
-7.5
 11
277.0
 21
202.5
 12
0.0
 22
0.0
 32
0.0
 14
25.69999999999999
 24
19.5
 34
0.0
 15
231.3
 25
175.5
 35
0.0
146
0.0
 13
0.0
 23
0.0
 33
0.0
 16
1.0
 26
0.0
 36
0.0
 17
0.0
 27
1.0
 37
0.0
 76
     0
330
11
1001
ACAD_PSEXT
1000
None
1000
None
1000
Not applicable
1000
The layout will not be plotted unless a new plotter configuration name is selected.
1070
     0
  0
LAYOUT
  5
E
102
{ACAD_REACTORS
330
F
102
}
330
F
100
AcDbPlotSettings
  1

  2
Adobe PDF
  4
A4
  6

 40
3.174999952316284
 41
3.174999952316284
 42
3.175003051757812
 43
3.17498779296875
 44
209.9733276367187
 45
297.0318298339844
 46
11.68396600940268
 47
78.46478961362445
 48
4459.497861080963
 49
1641.385426523477
140
6605.242672745349
141
4249.506158453842
142
1.0
143
10.0
 70
 11940
 72
     1
 73
     0
 74
     1
  7
LCG Normal.ctb
 75
     0
147
0.1129637908081155
 76
     0
 77
     2
 78
   300
148
8120.039128080069
149
21809.39894109561
100
AcDbLayout
  1
Model
 70
     1
 71
     0
 10
0.0
 20
0.0
 11
12.0
 21
9.0
 12
0.0
 22
0.0
 32
0.0
 14
0.0
 24
0.0
 34
0.0
 15
0.0
 25
0.0
 35
0.0
146
0.0
 13
0.0
 23
0.0
 33
0.0
 16
1.0
 26
0.0
 36
0.0
 17
0.0
 27
1.0
 37
0.0
 76
     0
330
2
331
26
1001
ACAD_PSEXT
1000
Adobe PDF
1000
Adobe PDF Converter
1000
Documents\*.pdf
1000

1070
     0
  0
MATERIAL
  5
3A
102
{ACAD_REACTORS
330
B
102
}
330
B
100
AcDbMaterial
  1
ByBlock
  0
MATERIAL
  5
39
102
{ACAD_REACTORS
330
B
102
}
330
B
100
AcDbMaterial
  1
ByLayer
  0
MATERIAL
  5
A
102
{ACAD_REACTORS
330
B
102
}
330
B
100
AcDbMaterial
  1
Global
  0
MLINESTYLE
  5
3F
102
{ACAD_REACTORS
330
37
102
}
330
37
100
AcDbMlineStyle
  2
STANDARD
 70
     0
  3

 62
   256
 51
90.0
 52
90.0
 71
     2
 49
0.5
 62
   256
  6
BYLAYER
 49
-0.5
 62
   256
  6
BYLAYER
  0
ACDBPLACEHOLDER
  5
7
102
{ACAD_REACTORS
330
8
102
}
330
8
  0
TABLESTYLE
  5
40
102
{ACAD_REACTORS
330
3C
102
}
330
3C
100
AcDbTableStyle
  3
Standard
 70
     0
 71
     0
 40
1.5
 41
1.5
280
     0
281
     0
  7
Standard
140
4.5
170
     2
 62
     0
 63
     7
283
     0
 90
        4
 91
        0
  1

274
    -2
284
     1
 64
     0
275
    -2
285
     1
 65
     0
276
    -2
286
     1
 66
     0
277
    -2
287
     1
 67
     0
278
    -2
288
     1
 68
     0
279
    -2
289
     1
 69
     0
  7
Standard
140
6.0
170
     5
 62
     0
 63
     7
283
     0
 90
        4
 91
        0
  1

274
    -2
284
     1
 64
     0
275
    -2
285
     1
 65
     0
276
    -2
286
     1
 66
     0
277
    -2
287
     1
 67
     0
278
    -2
288
     1
 68
     0
279
    -2
289
     1
 69
     0
  7
Standard
140
4.5
170
     5
 62
     0
 63
     7
283
     0
 90
        4
 91
        0
  1

274
    -2
284
     1
 64
     0
275
    -2
285
     1
 65
     0
276
    -2
286
     1
 66
     0
277
    -2
287
     1
 67
     0
278
    -2
288
     1
 68
     0
279
    -2
289
     1
 69
     0
  0
VISUALSTYLE
  5
27
102
{ACAD_REACTORS
330
28
102
}
330
28
100
AcDbVisualStyle
  2
2dWireframe
 70
     4
 71
     0
 72
     2
 73
     0
 90
        0
 40
-0.6
 41
-30.0
 62
     5
 63
     7
421
 16777215
 74
     1
 91
        4
 64
     7
 65
   257
 75
     1
175
     1
 42
1.0
 92
        0
 66
   257
 43
1.0
 76
     1
 77
     6
 78
     2
 67
     7
 79
     5
170
     0
171
     0
290
     0
174
     0
 93
        1
 44
0.0
173
     0
291
     0
 45
0.0
  0
VISUALSTYLE
  5
1AC
102
{ACAD_REACTORS
330
28
102
}
330
28
100
AcDbVisualStyle
  2
3D Hidden
 70
     6
 71
     1
 72
     2
 73
     2
 90
        0
 40
-0.6
 41
-30.0
 62
     5
 63
     7
421
 16777215
 74
     2
 91
        2
 64
     7
 65
   257
 75
     2
175
     1
 42
40.0
 92
        0
 66
   257
 43
1.0
 76
     1
 77
     6
 78
     2
 67
     7
 79
     3
170
     0
171
     0
290
     0
174
     0
 93
        1
 44
0.0
173
     0
291
     0
 45
0.0
  0
VISUALSTYLE
  5
42
102
{ACAD_REACTORS
330
28
102
}
330
28
100
AcDbVisualStyle
  2
3dWireframe
 70
     5
 71
     0
 72
     2
 73
     0
 90
        0
 40
-0.6
 41
-30.0
 62
     5
 63
     7
421
 16777215
 74
     1
 91
        4
 64
     7
 65
   257
 75
     1
175
     1
 42
1.0
 92
        0
 66
   257
 43
1.0
 76
     1
 77
     6
 78
     2
 67
     7
 79
     5
170
     0
171
     0
290
     0
174
     0
 93
        1
 44
0.0
173
     0
291
     0
 45
0.0
  0
VISUALSTYLE
  5
1AB
102
{ACAD_REACTORS
330
28
102
}
330
28
100
AcDbVisualStyle
  2
Basic
 70
     7
 71
     1
 72
     0
 73
     1
 90
        0
 40
-0.6
 41
-30.0
 62
     5
 63
     7
421
 16777215
 74
     0
 91
        4
 64
     7
 65
   257
 75
     1
175
     1
 42
1.0
 92
        8
 66
     7
 43
1.0
 76
     1
 77
     6
 78
     2
 67
     7
 79
     5
170
     0
171
     0
290
     0
174
     0
 93
        1
 44
0.0
173
     0
291
     1
 45
0.0
  0
VISUALSTYLE
  5
1AF
102
{ACAD_REACTORS
330
28
102
}
330
28
100
AcDbVisualStyle
  2
Brighten
 70
    12
 71
     2
 72
     2
 73
     0
 90
        0
 40
-0.6
 41
-30.0
 62
     5
 63
     7
421
 16777215
 74
     1
 91
        4
 64
     7
 65
   257
 75
     1
175
     1
 42
1.0
 92
        8
 66
     7
 43
1.0
 76
     1
 77
     6
 78
     2
 67
     7
 79
     5
170
     0
171
     0
290
     0
174
     0
 93
        1
 44
50.0
173
     0
291
     1
 45
0.0
  0
VISUALSTYLE
  5
1B3
102
{ACAD_REACTORS
330
28
102
}
330
28
100
AcDbVisualStyle
  2
ColorChange
 70
    16
 71
     2
 72
     2
 73
     3
 90
        0
 40
-0.6
 41
-30.0
 62
     5
 63
     8
421
  8421504
 74
     1
 91
        4
 64
     7
 65
   257
 75
     1
175
     1
 42
1.0
 92
        8
 66
     8
424
  8421504
 43
1.0
 76
     1
 77
     6
 78
     2
 67
     7
 79
     5
170
     0
171
     0
290
     0
174
     0
 93
        1
 44
0.0
173
     0
291
     1
 45
0.0
  0
VISUALSTYLE
  5
1AD
102
{ACAD_REACTORS
330
28
102
}
330
28
100
AcDbVisualStyle
  2
Conceptual
 70
     9
 71
     3
 72
     2
 73
     0
 90
        0
 40
-0.6
 41
-30.0
 62
     5
 63
     7
421
 16777215
 74
     2
 91
        2
 64
     7
 65
   257
 75
     1
175
     1
 42
40.0
 92
        8
 66
     7
 43
1.0
 76
     1
 77
     6
 78
     2
 67
     7
 79
     3
170
     0
171
     0
290
     0
174
     0
 93
        1
 44
0.0
173
     0
291
     0
 45
0.0
  0
VISUALSTYLE
  5
1AE
102
{ACAD_REACTORS
330
28
102
}
330
28
100
AcDbVisualStyle
  2
Dim
 70
    11
 71
     2
 72
     2
 73
     0
 90
        0
 40
-0.6
 41
-30.0
 62
     5
 63
     7
421
 16777215
 74
     1
 91
        4
 64
     7
 65
   257
 75
     1
175
     1
 42
1.0
 92
        8
 66
     7
 43
1.0
 76
     1
 77
     6
 78
     2
 67
     7
 79
     5
170
     0
171
     0
290
     0
174
     0
 93
        1
 44
-50.0
173
     0
291
     1
 45
0.0
  0
VISUALSTYLE
  5
1B2
102
{ACAD_REACTORS
330
28
102
}
330
28
100
AcDbVisualStyle
  2
Facepattern
 70
    15
 71
     2
 72
     2
 73
     0
 90
        0
 40
-0.6
 41
-30.0
 62
     5
 63
     7
421
 16777215
 74
     1
 91
        4
 64
     7
 65
   257
 75
     1
175
     1
 42
1.0
 92
        8
 66
     7
 43
1.0
 76
     1
 77
     6
 78
     2
 67
     7
 79
     5
170
     0
171
     0
290
     0
174
     0
 93
        1
 44
0.0
173
     0
291
     1
 45
0.0
  0
VISUALSTYLE
  5
1A7
102
{ACAD_REACTORS
330
28
102
}
330
28
100
AcDbVisualStyle
  2
Flat
 70
     0
 71
     2
 72
     1
 73
     1
 90
        2
 40
-0.6
 41
30.0
 62
     5
 63
     7
421
 16777215
 74
     0
 91
        4
 64
     7
 65
   257
 75
     1
175
     1
 42
1.0
 92
        8
 66
     7
 43
1.0
 76
     1
 77
     6
 78
     2
 67
     7
 79
     5
170
     0
171
     0
290
     0
174
     0
 93
       13
 44
0.0
173
     0
291
     1
 45
0.0
  0
VISUALSTYLE
  5
1A8
102
{ACAD_REACTORS
330
28
102
}
330
28
100
AcDbVisualStyle
  2
FlatWithEdges
 70
     1
 71
     2
 72
     1
 73
     1
 90
        2
 40
-0.6
 41
30.0
 62
     5
 63
     7
421
 16777215
 74
     1
 91
        4
 64
     7
 65
   257
 75
     1
175
     1
 42
1.0
 92
        0
 66
   257
 43
1.0
 76
     1
 77
     6
 78
     2
 67
     7
 79
     5
170
     0
171
     0
290
     0
174
     0
 93
       13
 44
0.0
173
     0
291
     1
 45
0.0
  0
VISUALSTYLE
  5
1A9
102
{ACAD_REACTORS
330
28
102
}
330
28
100
AcDbVisualStyle
  2
Gouraud
 70
     2
 71
     2
 72
     2
 73
     1
 90
        2
 40
-0.6
 41
30.0
 62
     5
 63
     7
421
 16777215
 74
     0
 91
        4
 64
     7
 65
   257
 75
     1
175
     1
 42
1.0
 92
        0
 66
     7
 43
1.0
 76
     1
 77
     6
 78
     2
 67
     7
 79
     5
170
     0
171
     0
290
     0
174
     0
 93
       13
 44
0.0
173
     0
291
     1
 45
0.0
  0
VISUALSTYLE
  5
1AA
102
{ACAD_REACTORS
330
28
102
}
330
28
100
AcDbVisualStyle
  2
GouraudWithEdges
 70
     3
 71
     2
 72
     2
 73
     1
 90
        2
 40
-0.6
 41
30.0
 62
     5
 63
     7
421
 16777215
 74
     1
 91
        4
 64
     7
 65
   257
 75
     1
175
     1
 42
1.0
 92
        0
 66
   257
 43
1.0
 76
     1
 77
     6
 78
     2
 67
     7
 79
     5
170
     0
171
     0
290
     0
174
     0
 93
       13
 44
0.0
173
     0
291
     1
 45
0.0
  0
VISUALSTYLE
  5
1B1
102
{ACAD_REACTORS
330
28
102
}
330
28
100
AcDbVisualStyle
  2
Linepattern
 70
    14
 71
     2
 72
     2
 73
     0
 90
        0
 40
-0.6
 41
-30.0
 62
     5
 63
     7
421
 16777215
 74
     1
 91
        4
 64
     7
 65
   257
 75
     7
175
     7
 42
1.0
 92
        8
 66
     7
 43
1.0
 76
     1
 77
     6
 78
     2
 67
     7
 79
     5
170
     0
171
     0
290
     0
174
     0
 93
        1
 44
0.0
173
     0
291
     1
 45
0.0
  0
VISUALSTYLE
  5
41
102
{ACAD_REACTORS
330
28
102
}
330
28
100
AcDbVisualStyle
  2
Realistic
 70
     8
 71
     2
 72
     2
 73
     0
 90
        0
 40
-0.6
 41
-30.0
 62
     5
 63
     7
421
 16777215
 74
     1
 91
        0
 64
     7
 65
   257
 75
     1
175
     1
 42
1.0
 92
        8
 66
     8
424
  7895160
 43
1.0
 76
     1
 77
     6
 78
     2
 67
     7
 79
     5
170
     0
171
     0
290
     0
174
     0
 93
       13
 44
0.0
173
     0
291
     0
 45
0.0
  0
VISUALSTYLE
  5
1B0
102
{ACAD_REACTORS
330
28
102
}
330
28
100
AcDbVisualStyle
  2
Thicken
 70
    13
 71
     2
 72
     2
 73
     0
 90
        0
 40
-0.6
 41
-30.0
 62
     5
 63
     7
421
 16777215
 74
     1
 91
        4
 64
     7
 65
   257
 75
     1
175
     1
 42
1.0
 92
       12
 66
     7
 43
1.0
 76
     1
 77
     6
 78
     2
 67
     7
 79
     5
170
     0
171
     0
290
     0
174
     0
 93
        1
 44
0.0
173
     0
291
     1
 45
0.0
  0
DICTIONARYVAR
  5
1A5
102
{ACAD_REACTORS
330
1A4
102
}
330
1A4
100
DictionaryVariables
280
     0
  1
STANDARD
  0
DICTIONARY
  5
15
330
14
100
AcDbDictionary
280
     1
281
     1
  3
ADSK_XREC_LAYOUTTHUMBNAIL
360
16
  0
XRECORD
  5
16
102
{ACAD_REACTORS
330
15
102
}
330
15
100
AcDbXrecord
280
     1
310
28000000B40000007F00000001000800000000004C590000000000000000000000010000000000000000000000000000FFFFFF000000000000000000000000000000000000000000000000000000000000000000330000006600000099000000CC000000FF00000000330000333300006633000099330000CC330000FF3300
310
0000660000336600006666000099660000CC660000FF66000000990000339900006699000099990000CC990000FF99000000CC000033CC000066CC000099CC0000CCCC0000FFCC000000FF000033FF000066FF000099FF0000CCFF0000FFFF000000003300330033006600330099003300CC003300FF003300003333003333
310
33006633330099333300CC333300FF33330000663300336633006666330099663300CC663300FF66330000993300339933006699330099993300CC993300FF99330000CC330033CC330066CC330099CC3300CCCC3300FFCC330000FF330033FF330066FF330099FF3300CCFF3300FFFF330000006600330066006600660099
310
006600CC006600FF00660000336600333366006633660099336600CC336600FF33660000666600336666006666660099666600CC666600FF66660000996600339966006699660099996600CC996600FF99660000CC660033CC660066CC660099CC6600CCCC6600FFCC660000FF660033FF660066FF660099FF6600CCFF6600
310
FFFF660000009900330099006600990099009900CC009900FF00990000339900333399006633990099339900CC339900FF33990000669900336699006666990099669900CC669900FF66990000999900339999006699990099999900CC999900FF99990000CC990033CC990066CC990099CC9900CCCC9900FFCC990000FF99
310
0033FF990066FF990099FF9900CCFF9900FFFF99000000CC003300CC006600CC009900CC00CC00CC00FF00CC000033CC003333CC006633CC009933CC00CC33CC00FF33CC000066CC003366CC006666CC009966CC00CC66CC00FF66CC000099CC003399CC006699CC009999CC00CC99CC00FF99CC0000CCCC0033CCCC0066CC
310
CC0099CCCC00CCCCCC00FFCCCC0000FFCC0033FFCC0066FFCC0099FFCC00CCFFCC00FFFFCC000000FF003300FF006600FF009900FF00CC00FF00FF00FF000033FF003333FF006633FF009933FF00CC33FF00FF33FF000066FF003366FF006666FF009966FF00CC66FF00FF66FF000099FF003399FF006699FF009999FF00CC
310
99FF00FF99FF0000CCFF0033CCFF0066CCFF0099CCFF00CCCCFF00FFCCFF0000FFFF0033FFFF0066FFFF0099FFFF00CCFFFF00FFFFFF00000000000D0D0D001A1A1A00282828003535350043434300505050005D5D5D006B6B6B00787878008686860093939300A1A1A100AEAEAE00BBBBBB00C9C9C900D6D6D600E4E4E400
310
F1F1F100FFFFFF0000000000000000000000000000000000000000000000000000000000000000000000000000000000F5F5F5F5F5F5F5F5F5F5F5F5F5F5F5F5F5F5F5F5F5F5F5F5F5F5F5F5F5F5F5F5F5F5F5F5F5F5F5F5F5F5F5F5F5F5F5F5F5F5F5F5F5F5F5F5F5F5F5F5F5F5F5F5F5F5F5F5F5F5F5F5F5F5F5F5F5F5F5
310
F5F5F5F5F5F5F5F5F5F5F5F5F5F5F5F5F5F5F5F5F5F5F5F5F5F5F5F5F5F5F5F5F5F5F5F5F5F5F5F5F5F5F5F5F5F5F5F5F5F5F5F5F5F5F5F5F5F5F5F5F5F5F5F5F5F5F5F5F5F5F5F5F5F5F5F5F5F5F5F5F5F5F5F5F5F5F5F5F5F5F5F5F5F5F5F5F5F5F5F5F5F5E2E2E2E2E2E2E2E2E2E2E2E2E2E2E2E2E2E2E2E2E2E2E2E2E2
310
E2E2E2E2E2E2E2E2E2E2E2E2E2E2E2E2E2E2E2E2E2E2E2E2E2E2E2E2E2E2E2E2E2E2E2E2E2E2E2E2E2E2E2E2E2E2E2E2E2E2E2E2E2E2E2E2E2E2E2E2E2E2E2E2E2E2E2E2E2E2E2E2E2E2E2E2E2E2E2E2E2E2E2E2E2E2E2E2E2E2E2E2E2E2E2E2E2E2E2E2E2E2E2E2E2E2E2E2E2E2E2E2E2E2E2E2E2E2E2E2E2E2E2E2E2E2E2
310
E2E2E2E2E2E2E2E2E2E2E2E2E2E2E2E2E2E2E2E2E2E2E2E2E2E2F5F5E2E2E2E2E2E2E2E2E2E2E2E2E2E2E2E2E2E2E2E2E2E2E2E2E2E2E2E2E2E2E2E2E2E2E2E2E2E2E2E2E2E2E2E2E2E2E2E2E2E2E2E2E2E2E2E2E2E2E2E2E2E2E2E2E2E2E2E2E2E2E2E2E2E2E2E2E2E2E2E2E2E2E2E2E2E2E2E2E2E2E2E2E2E2E2E2E2E2E2
310
E2E2E2E2E2E2E2E2E2E2E2E2E2E2E2E2E2E2E2E2E2E2E2E2E2E2E2E2E2E2E2E2E2E2E2E2E2E2E2E2E2E2E2E2E2E2E2E2E2E2E2E2E2E2E2E2E2E2E2E2E2E2E2E2E2E2E2E2E2E2E2E2E2E2E2E2E2E2E2F5F5E2E2E2E2E2E2E2E2E2E2E2E2E2E2E2E2E2E2E2E2E2E2E2E2E2E2E2E2E2E2E2E2E2E2E2E2E2E2E2E2E2E2E2E2E2E2
310
E2E2E2E2E2E2E2E2E2E2E2E2E2E2E2E2E2E2E2E2E2E2E2E2E2E2E2E2E2E2E2E2E2E2E2E2E2E2E2E2E2E2E2E2E2E2E2E2E2E2E2E2E2E2E2E2E2E2E2E2E2E2E2E2E2E2E2E2E2E2E2E2E2E2E2E2E2E2E2E2E2E2E2E2E2E2E2E2E2E2E2E2E2E2E2E2E2E2E2E2E2E2E2E2E2E2E2E2E2E2E2E2E2E2E2E2E2E2E2E2E2E2E2E2E2E2E2
310
E2E2E2E2E2F5F5E2E2E2E2E2E2E2E2E2E2E2F5F5F5F5F5F5F5F5F5E2E2E2E2E2E2E2E2E2F5F5F5F5F5F5F5F5F5F5F5F5F5F5F5F5F5E2E2E2E2E2E2E2E2E2F5F5F5F5F5F5F5F5F5F5F5F5F5F5F5F5E2E2E2E2E2E2E2E2E2E2F5F5F5F5F5F5F5F5F5F5F5F5F5F5F5F5E2E2E2E2E2E2E2E2E2E2F5F5F5F5F5F5F5F5F5F5F5F5F5
310
F5F5F5E2E2E2E2E2E2E2E2E2F5F5F5F5F5F5F5F5F5F5F5F5F5F5F5F5F5E2E2E2E2E2E2E2E2E2F5F5F5F5F5F5F5F5F5E2E2E2E2E2E2E2E2E2E2E2F5F5E2E2E2E2E2E2E2E2E2E2E2F5E2E2E2E2E2E2E2E2E2E2E2E2E2E2E2E2E2E2E2E2E2E2E2E2E2E2E2E2E2E2E2E2E2E2E2E2E2E2E2E2E2E2E2E2E2E2E2E2E2E2E2E2E2E2E2
310
E2E2E2E2E2E2E2E2E2E2E2E2E2E2E2E2E2E2E2E2E2E2E2E2E2E2E2E2E2E2E2E2E2E2E2E2E2E2E2E2E2E2E2E2E2E2E2E2E2E2E2E2E2E2E2E2E2E2E2E2E2E2E2E2E2E2E2E2E2E2E2E2E2E2E2E2E2E2E2E2E2E2E2E2E2E2E2E2E2E2E2E2E2E2E2E2E2E2E2F5E2E2E2E2E2E2E2E2E2E2E2F5F5E2E2E2E2E2E2E2E2E2E2E2F5E2E2
310
E2E2E2E2E2E2E2E2E2E2E2E2E2E2E2E2E2E2E2E2E2E2E2E2E2E2E2E2E2E2E2E2E2E2E2E2E2E2E2E2E2E2E2E2E2E2E2E2E2E2E2E2E2E2E2E2E2E2E2E2E2E2E2E2E2E2E2E2E2E2E2E2E2E2E2E2E2E2E2E2E2E2E2E2E2E2E2E2E2E2E2E2E2E2E2E2E2E2E2E2E2E2E2E2E2E2E2E2E2E2E2E2E2E2E2E2E2E2E2E2E2E2E2E2E2E2E2
310
E2E2E2E2E2E2E2E2E2E2E2E2E2E2E2E2E2E2E2E2E2E2E2E2E2F5E2E2E2E2E2E2E2E2E2E2E2F5F5E2E2E2E2E2E2E2E2E2E2E2F5E2E2E2E2E2E2E2E2E2E2E2E2E2E2E2E2E2E2E2E2E2E2E2E2E2E2E2E2E2E2E2E2E2E2E2E2E2E2E2E2E2E2E2E2E2E2E2E2E2E2E2E2E2E2E2E2E2E2E2E2E2E2E2E2E2E2E2E2E2E2E2E2E2E2E2E2
310
E2E2E2E2E2E2E2E2E2E2E2E2E2E2E2E2E2E2E2E2E2E2E2E2E2E2E2E2E2E2E2E2E2E2E2E2E2E2E2E2E2E2E2E2E2E2E2E2E2E2E2E2E2E2E2E2E2E2E2E2E2E2E2E2E2E2E2E2E2E2E2E2E2E2E2E2E2E2F5E2E2E2E2E2E2E2E2E2E2E2F5F5E2E2E2E2E2E2E2E2E2E2E2F5E2E2E2E2E2E2E2E2E2E2E2E2E2E2E2E2E2E2E2E2E2E2E2
310
E2E2E2E2E2E2E2E2E2E2E2E2E2E2E2E2E2E2E2E2E2E2E2E2E2E2E2E2E2E2E2E2E2E2E2E2E2E2E2E2E2E2E2E2E2E2E2E2E2E2E2E2E2E2E2E2E2E2E2E2E2E2E2E2E2E2E2E2E2E2E2E2E2E2E2E2E2E2E2E2E2E2E2E2E2E2E2E2E2E2E2E2E2E2E2E2E2E2E2E2E2E2E2E2E2E2E2E2E2E2E2E2E2E2E2E2E2E2E2E2E2E2E2E2E2E2E2
310
E2E2E2E2F5E2E2E2E2E2E2E2E2E2E2E2F5F5E2E2E2E2E2E2E2E2E2E2E2F5E2E2E2E2E2E2E2E2E2E2E2E2E2E2E2E2E2E2E2E2E2E2E2E2E2E2E2E2E2E2E2E2E2E2E2E2E2E2E2E2E2E2E2E2E2E2E2E2E2E2E2E2E2E2E2E2E2E2E2E2E2E2E2E2E2E2E2E2E2E2E2E2E2E2E2E2E2E2E2E2E2E2E2E2E2E2E2E2E2E2E2E2E2E2E2E2E2
310
E2E2E2E2E2E2E2E2E2E2E2E2E2E2E2E2E2E2E2E2E2E2E2E2E2E2E2E2E2E2E2E2E2E2E2E2E2E2E2E2E2E2E2E2E2E2E2E2E2E2E2E2E2E2E2E2E2F5E2E2E2E2E2E2E2E2E2E2E2F5F5E2E2E2E2E2E2E2E2E2E2E2F5E2E2E2E2E2E2E2E2E2E2E2E2E2E2E2E2E2E2E2E2E2E2E2E2E2E2E2E2E2E2E2E2E2E2E2E2E2E2E2E2E2E2E2E2
310
E2E2E2E2E2E2E2E2E2E2E2E2E2E2E2E2E2E2E2E2E2E2E2E2E2E2E2E2E2E2E2E2E2E2E2E2E2E2E2E2E2E2E2E2E2E2E2E2E2E2E2E2E2E2E2E2E2E2E2E2E2E2E2E2E2E2E2E2E2E2E2E2E2E2E2E2E2E2E2E2E2E2E2E2E2E2E2E2E2E2E2E2E2E2E2E2E2E2E2E2E2E2E2E2E2E2E2E2E2E2F5E2E2E2E2E2E2E2E2E2E2E2F5F5E2E2E2
310
E2E2E2E2E2E2E2E2F5E2E2E2E2E2E2E2E2E2E2E2E2E2E2E2E2E2E2E2E2E2E2E2E2E2E2E2E2E2E2E2E2E2E2E2E2E2E2E2E2E2E2E2E2E2E2E2E2E2E2E2E2E2E2E2E2E2E2E2E2E2E2E2E2E2E2E2E2E2E2E2E2E2E2E2E2E2E2E2E2E2E2E2E2E2E2E2E2E2E2E2E2E2E2E2E2E2E2E2E2E2E2E2E2E2E2E2E2E2E2E2E2E2E2E2E2E2E2
310
E2E2E2E2E2E2E2E2E2E2E2E2E2E2E2E2E2E2E2E2E2E2E2E2E2E2E2E2E2E2E2E2E2E2E2E2F5E2E2E2E2E2E2E2E2E2E2E2F5F5E2E2E2E2E2E2E2E2E2E2E2E2E2E2E2E2E2E2E2E2E2E2E2E2E2E2E2E2E2E2E2E2E2E2E2E2E2E2E2E2E2E2E2E2E2E2E2E2E2E2E2E2E2E2E2E2E2E2E2E2E2E2E2E2E2E2E2E2E2E2E2E2E2E2E2E2E2
310
E2E2E2E2E2E2E2E2E2E2E2E2E2E2E2E2E2E2E2E2E2E2E2E2E2E2E2E2E2E2E2E2E2E2E2E2E2E2E2E2E2E2E2E2E2E2E2E2E2E2E2E2E2E2E2E2E2E2E2E2E2E2E2E2E2E2E2E2E2E2E2E2E2E2E2E2E2E2E2E2E2E2E2E2E2E2E2E2E2E2E2E2E2E2E2E2E2E2E2E2E2F5F5E2E2E2E2E2E2E2E2E2E2E2E2E2E2E2E2E2E2E2E2E2E2E2E2
310
E2E2E2E2E2E2E2E2E2E2E2E2E2E2E2E2E2E2E2E2E2E2E2E2E2E2E2E2E2E2E2E2E2E2E2E2E2E2E2E2E2E2E2E2E2E2E2E2E2E2E2E2E2E2E2E2E2E2E2E2E2E2E2E2E2E2E2E2E2E2E2E2E2E2E2E2E2E2E2E2E2E2E2E2E2E2E2E2E2E2E2E2E2E2E2E2E2E2E2E2E2E2E2E2E2E2E2E2E2E2E2E2E2E2E2E2E2E2E2E2E2E2E2E2E2E2E2
310
E2E2E2E2E2E2E2E2E2E2E2E2E2E2E2E2E2E2E2E2E2E2E2E2E2E2E2F5F5E2E2E2E2E2E2E2E2E2E2E2E2E2E2E2E2E2E2E2E2E2E2E2E2E2E2E2E2E2E2E2E2E2E2E2E2E2E2E2E2E2E2E2E2E2E2E2E2E2E2E2E2E2E2E2E2E2E2E2E2E2E2E2E2E2E2E2E2E2E2E2E2E2E2E2E2E2E2E2E2E2E2E2E2E2E2E2E2E2E2E2E2E2E2E2E2E2E2
310
E2E2E2E2E2E2E2E2E2E2E2E2E2E2E2E2E2E2E2E2E2E2E2E2E2E2E2E2E2E2E2E2E2E2E2E2E2E2E2E2E2E2E2E2E2E2E2E2E2E2E2E2E2E2E2E2E2E2E2E2E2E2E2E2E2E2E2E2E2E2E2E2E2E2E2E2E2E2E2E2F5F5E2E2E2E2E2E2E2E2E2E2E2E2E2E2E2E2E2E2E2E2E2E2E2E2E2E2E2E2E2E2E2E2E2E2E2E2E2E2E2E2E2E2E2E2E2
310
E2E2E2E2E2E2E2E2E2E2E2E2E2E2E2E2E2E2E2E2E2E2E2E2E2E2E2E2E2E2E2E2E2E2E2E2E2E2E2E2E2E2E2E2E2E2E2E2E2E2E2E2E2E2E2E2E2E2E2E2E2E2E2E2E2E2E2E2E2E2E2E2E2E2E2E2E2E2E2E2E2E2E2E2E2E2E2E2E2E2E2E2E2E2E2E2E2E2E2E2E2E2E2E2E2E2E2E2E2E2E2E2E2E2E2E2E2E2E2E2E2E2E2E2E2E2E2
310
E2E2E2E2E2E2F5F5E2E2E2E2E2E2E2E2E2E2E2E2E2E2E2E2E2E2E2E2E2E2E2E2E2E2E2F5F5F5F5F5F5F5F5F5F5F5F5F5F5F5F5F5F5F5F5F5F5F5F5F5F5F5F5F5F5F5F5F5F5F5F5F5F5F5F5F5F5F5F5F5F5F5F5F5F5F5F5F5F5F5F5F5F5F5F5F5F5F5F5F5F5F5F5F5F5F5F5F5F5F5F5F5F5F5F5F5F5F5F5F5F5F5F5F5F5F5F5
310
F5F5F5F5F5F5F5F5F5F5F5F5F5F5F5F5F5F5F5F5F5F5F5F5F5F5F5F5F5F5F5F5E2E2E2E2E2E2E2E2E2E2E2E2E2E2E2E2E2E2E2E2E2E2E2E2E2E2E2F5F5E2E2E2E2E2E2E2E2E2E2E2E2E2E2E2E2E2E2E2E2E2E2E2E2E2E2E2F5E2E2E2E2E2E2E2E2E2E2E2E2E2E2E2E2E2E2E2E2E2E2E2E2E2E2E2E2E2E2E2E2E2E2E2E2E2E2
310
E2E2E2E2E2E2E2E2E2E2E2E2E2E2E2E2E2E2E2E2E2E2E2E2E2E2E2E2E2E2E2E2E2E2E2E2E2E2E2E2E2E2E2E2E2E2E2E2E2E2E2E2E2E2E2E2E2E2E2E2E2E2E2E2E2E2E2E2E2E2E2E2E2E2E2E2E2E2E2E2E2E2E2E2F5E2E2E2E2E2E2E2E2E2E2E2E2E2E2E2E2E2E2E2E2E2E2E2E2E2E2E2F5F5E2E2E2E2E2E2E2E2E2E2E2E2E2
310
E2E2E2E2E2E2E2E2E2E2E2E2E2E2F5E2E2E2E2E2E2E2E2E2E2E2E2E2E2E2E2E2E2E2E2E2E2E2E2E2E2E2E2E2E2E2E2E2E2E2E2E2E2E2E2E2E2E2E2E2E2E2E2E2E2E2E2E2E2E2E2E2E2E2E2E2E2E2E2E2E2E2E2E2E2E2E2E2E2E2E2E2E2E2E2E2E2E2E2E2E2E2E2E2E2E2E2E2E2E2E2E2E2E2E2E2E2E2E2E2E2E2E2E2E2E2E2
310
E2E2E2E2E2E2E2E2E2E2F5E2E2E2E2E2E2E2E2E2E2E2E2E2E2E2E2E2E2E2E2E2E2E2E2E2E2E2F5F5E2E2E2E2E2E2E2E2E2E2E2E2E2E2E2E2E2E2E2E2E2E2E2E2E2E2E2F5E2E2E2E2E2E2E2E2E2E2E2E2E2E2E2E2E2E2E2E2E2E2E2E2E2E2E2E2E2E2E2E2E2E2E2E2E2E2E2E2E2E2E2E2E2E2E2E2E2E2E2E2E2E2E2E2E2E2E2
310
E2E2E2E2E2E2E2E2E2E2E2E2E2E2E2E2E2E2E2E2E2E2E2E2E2E2E2E2E2E2E2E2E2E2E2E2E2E2E2E2E2E2E2E2E2E2E2E2E2E2E2E2E2E2E2E2E2E2E2E2E2E2E2F5E2E2E2E2E2E2E2E2E2E2E2E2E2E2E2E2E2E2E2E2E2E2E2E2E2E2E2F5F5E2E2E2E2E2E2E2E2E2E2E2F5E2E2E2E2E2E2E2E2E2E2E2E2E2E2E2F5E2E2E2E2E2E2
310
E2E2E2E2E2E2E2E2E2E2E2E2E2E2E2E2E2E2E2E2E2E2E2E2E2E2E2E2E2E2E2E2E2E2E2E2E2E2E2E2E2E2E2E2E2E2E2E2E2E2E2E2E2E2E2E2E2E2E2E2E2E2E2E2E2E2E2E2E2E2E2E2E2E2E2E2E2E2E2E2E2E2E2E2E2E2E2E2E2E2E2E2E2E2E2E2E2E2E2E2E2E2E2E2E2E2E2E2E2E2E2E2E2E2E2E2F5E2E2E2E2E2E2E2E2E2E2
310
E2E2E2E2E2F5E2E2E2E2E2E2E2E2E2E2E2F5F5E2E2E2E2E2E2E2E2E2E2E2F5E2E2E2E2E2E2E2E2E2E2E2E2E2E2E2F5E2E2E2E2E2E2E2E2E2E2E2E2E2E2E2E2E2E2E2E2E2E2E2E2E2E2E2E2E2E2E2E2E2E2E2E2E2E2E2E2E2E2E2E2E2E2E2E2E2E2E2E2E2E2E2E2E2E2E2E2E2E2E2E2E2E2E2E2E2E2E2E2E2E2E2E2E2E2E2E2
310
E2E2E2E2E2E2E2E2E2E2E2E2E2E2E2E2E2E2E2E2E2E2E2E2E2E2E2E2E2E2E2E2E2E2E2E2E2E2E2E2E2E2F5E2E2E2E2E2E2E2E2E2E2E2E2E2E2E2F5E2E2E2E2E2E2E2E2E2E2E2F5F5E2E2E2E2E2E2E2E2E2E2E2F5E2E2E2E2E2E2E2E2E2E2E2E2E2E2E2F5E2E2E2E2E2E2E2E2E2E2E2E2E2E2E2E2E2E2E2E2E2E2E2E2E2E2E2
310
E2E2E2E2E2E2E2E2E2E2E2E2E2E2E2E2E2E2E2E2E2E2E2E2E2E2E2E2E2E2E2E2E2E2E2E2E2E2E2E2E2E2E2E2E2E2E2E2E2E2E2E2E2E2E2E2E2E2E2E2E2E2E2E2E2E2E2E2E2E2E2E2E2E2E2E2E2E2E2E2E2E2E2E2E2E2E2E2E2E2E2E2E2E2E2F5E2E2E2E2E2E2E2E2E2E2E2E2E2E2E2F5E2E2E2E2E2E2E2E2E2E2E2F5F5E2E2
310
E2E2E2E2E2E2E2E2E2F5E2E2E2E2E2E2E2E2E2E2E2E2E2E2E2F5E2E2E2E2E2E2E2E2E2E2E2E2E2E2E2E2E2E2E2E2E2E2E2E2E2E2E2E2E2E2E2E2E2E2E2E2E2E2E2E2E2E2E2E2E2E2E2E2E2E2E2E2E2E2E2E2E2E2E2E2E2E2E2E2E2E2E2E2E2E2E2E2E2E2E2E2E2E2E2E2E2E2E2E2E2E2E2E2E2E2E2E2E2E2E2E2E2E2E2E2E2
310
E2E2E2E2E2E2E2E2E2E2E2E2E2E2E2E2E2E2E2E2E2F5E2E2E2E2E2E2E2E2E2E2E2E2E2E2E2F5E2E2E2E2E2E2E2E2E2E2E2F5F5E2E2E2E2E2E2E2E2E2E2E2F5E2E2E2E2E2E2E2E2E2E2E2E2E2E2E2F5E2E2E2E2E2E2E2E2E2E2E2E2E2E2E2E2E2E2E2E2E2E2E2E2E2E2E2E2E2E2E2E2E2E2E2E2E2E2E2E2E2E2E2E2E2E2E2E2
310
E2E2E2E2E2E2E2E2E2E2E2E2E2E2E2E2E2E2E2E2E2E2E2E2E2E2E2E2E2E2E2E2E2E2E2E2E2E2E2E2E2E2E2E2E2E2E2E2E2E2E2E2E2E2E2E2E2E2E2E2E2E2E2E2E2E2E2E2E2E2E2E2E2E2F5E2E2E2E2E2E2E2E2E2E2E2E2E2E2E2F5E2E2E2E2E2E2E2E2E2E2E2F5F5E2E2E2E2E2E2E2E2E2E2E2F5E2E2E2E2E2E2E2E2E2E2E2
310
E2E2E2E2F5E2E2E2E2E2E2E2E2E2E2E2E2E2E2E2E2E2E2E2E2E2E2E2E2E2E2E2E2E2E2E2E2E2E2E2E2E2E2E2E2E2E2E2E2E2E2E2E2E2E2E2E2E2E2E2E2E2E2E2E2E2E2E2E2E2E2E2E2E2E2E2E2E2E2E2E2E2E2E2E2E2E2E2E2E2E2E2E2E2E2E2E2E2E2E2E2E2E2E2E2E2E2E2E2E2E2E2E2E2E2E2E2E2E2E2E2E2E2E2E2E2E2
310
F5E2E2E2E2E2E2E2E2E2E2E2E2E2E2E2F5E2E2E2E2E2E2E2E2E2E2E2F5F5E2E2E2E2E2E2E2E2E2E2E2F5E2E2E2E2E2E2E2E2E2E2E2E2E2E2E2F5E2E2E2E2E2E2E2E2E2E2E2E2E2E2E2E2E2E2E2E2E2E2E2E2E2E2E2E2E2E2E2E2E2E2E2E2E2E2E2E2E2E2E2E2E2E2E2E2E2E2E2E2E2E2E2E2E2E2E2E2E2E2E2E2E2E2E2E2E2
310
E2E2E2E2E2E2E2E2E2E2E2E2E2E2E2E2E2E2E2E2E2E2E2E2E2E2E2E2E2E2E2E2E2E2E2E2E2E2E2E2E2E2E2E2E2E2E2E2E2E2E2E2E2F5E2E2E2E2E2E2E2E2E2E2E2E2E2E2E2F5E2E2E2E2E2E2E2E2E2E2E2F5F5E2E2E2E2E2E2E2E2E2E2E2F5E2E2E2E2E2E2E2E2E2E2E2E2E2E2E2F5E2E2E2E2E2E2E2E2E2E2E2E2E2E2E2E2
310
E2E2E2E2E2E2E2E2E2E2E2E2E2E2E2E2E2E2E2E2E2E2E2E2E2E2E2E2E2E2E2E2E2E2E2E2E2E2E2E2E2E2E2E2E2E2E2E2E2E2E2E2E2E2E2E2E2E2E2E2E2E2E2E2E2E2E2E2E2E2E2E2E2E2E2E2E2E2E2E2E2E2E2E2E2E2E2E2E2E2E2E2E2E2E2E2E2E2E2E2E2E2E2E2E2E2F5E2E2E2E2E2E2E2E2E2E2E2E2E2E2E2F5E2E2E2E2
310
E2E2E2E2E2E2E2F5F5E2E2E2E2E2E2E2E2E2E2E2F5E2E2E2E2E2E2E2E2E2E2E2E2E2E2E2F5E2E2E2E2E2E2E2E2E2E2E2E2E2E2E2E2E2E2E2E2E2E2E2E2E2E2E2E2E2E2E2E2E2E2E2E2E2E2E2E2E2E2E2E2E2E2E2E2E2E2E2E2E2E2E2E2E2E2E2E2E2E2E2E2E2E2E2E2E2E2E2E2E2E2E2E2E2E2E2E2E2E2E2E2E2E2E2E2E2E2
310
E2E2E2E2E2E2E2E2E2E2E2E2E2E2E2E2E2E2E2E2E2E2E2E2E2E2E2E2E2E2E2E2F5E2E2E2E2E2E2E2E2E2E2E2E2E2E2E2F5E2E2E2E2E2E2E2E2E2E2E2F5F5E2E2E2E2E2E2E2E2E2E2E2F5E2E2E2E2E2E2E2E2E2E2E2E2E2E2E2F5E2E2E2E2E2E2E2E2E2E2E2E2E2E2E2E2E2E2E2E2E2E2E2E2E2E2E2E2E2E2E2E2E2E2E2E2E2
310
E2E2E2E2E2E2E2E2E2E2E2E2E2E2E2E2E2E2E2E2E2E2E2E2E2E2E2E2E2E2E2E2E2E2E2E2E2E2E2E2E2E2E2E2E2E2E2E2E2E2E2E2E2E2E2E2E2E2E2E2E2E2E2E2E2E2E2E2E2E2E2E2E2E2E2E2E2E2E2E2E2E2E2E2E2F5E2E2E2E2E2E2E2E2E2E2E2E2E2E2E2F5E2E2E2E2E2E2E2E2E2E2E2F5F5E2E2E2E2E2E2E2E2E2E2E2F5
310
E2E2E2E2E2E2E2E2E2E2E2E2E2E2E2F5E2E2E2E2E2E2E2E2E2E2E2E2E2E2E2E2E2E2E2E2E2E2E2E2E2E2E2E2E2E2E2E2E2E2E2E2E2E2E2E2E2E2E2E2E2E2E2E2E2E2E2E2E2E2E2E2E2E2E2E2E2E2E2E2E2E2E2E2E2E2E2E2E2E2E2E2E2E2E2E2E2E2E2E2E2E2E2E2E2E2E2E2E2E2E2E2E2E2E2E2E2E2E2E2E2E2E2E2E2E2E2
310
E2E2E2E2E2E2E2E2E2E2E2F5E2E2E2E2E2E2E2E2E2E2E2E2E2E2E2F5E2E2E2E2E2E2E2E2E2E2E2F5F5E2E2E2E2E2E2E2E2E2E2E2F5E2E2E2E2E2E2E2E2E2E2E2E2E2E2E2F5E2E2E2E2E2E2E2E2E2E2E2E2E2E2E2E2E2E2E2E2E2E2E2E2E2E2E2E2E2E2E2E2E2E2E2E2E2E2E2E2E2E2E2E2E2E2E2E2E2E2E2E2E2E2E2E2E2E2
310
E2E2E2E2E2E2E2E2E2E2E2E2E2E2E2E2E2E2E2E2E2E2E2E2E2E2E2E2E2E2E2E2E2E2E2E2E2E2E2E2E2E2E2E2E2E2E2E2E2E2E2E2E2E2E2E2E2E2E2E2E2E2E2E2F5E2E2E2E2E2E2E2E2E2E2E2E2E2E2E2F5E2E2E2E2E2E2E2E2E2E2E2F5F5E2E2E2E2E2E2E2E2E2E2E2F5E2E2E2E2E2E2E2E2E2E2E2E2E2E2E2F5E2E2E2E2E2
310
E2E2E2E2E2E2E2E2E2E2E2E2E2E2E2E2E2E2E2E2E2E2E2E2E2E2E2E2E2E2E2E2E2E2E2E2E2E2E2E2E2E2E2E2E2E2E2E2E2E2E2E2E2E2E2E2E2E2E2E2E2E2E2E2E2E2E2E2E2E2E2E2E2E2E2E2E2E2E2E2E2E2E2E2E2E2E2E2E2E2E2E2E2E2E2E2E2E2E2E2E2E2E2E2E2E2E2E2E2E2E2E2E2E2E2E2E2F5E2E2E2E2E2E2E2E2E2
310
E2E2E2E2E2E2F5E2E2E2E2E2E2E2E2E2E2E2F5F5E2E2E2E2E2E2E2E2E2E2E2F5E2E2E2E2E2E2E2E2E2E2E2E2E2E2E2F5E2E2E2E2E2E2E2E2E2E2E2E2E2E2E2E2E2E2E2E2E2E2E2E2E2E2E2E2E2E2E2E2E2E2E2E2E2E2E2E2E2E2E2E2E2E2E2E2E2E2E2E2E2E2E2E2E2E2E2E2E2E2E2E2E2E2E2E2E2E2E2E2E2E2E2E2E2E2E2
310
E2E2E2E2E2E2E2E2E2E2E2E2E2E2E2E2E2E2E2E2E2E2E2E2E2E2E2E2E2E2E2E2E2E2E2E2E2E2E2E2E2E2E2F5E2E2E2E2E2E2E2E2E2E2E2E2E2E2E2F5E2E2E2E2E2E2E2E2E2E2E2F5F5E2E2E2E2E2E2E2E2E2E2E2F5E2E2E2E2E2E2E2E2E2E2E2E2E2E2E2F5E2E2E2E2E2E2E2E2E2E2E2E2E2E2E2E2E2E2E2E2E2E2E2E2E2E2
310
E2E2E2E2E2E2E2E2E2E2E2E2E2E2E2E2E2E2E2E2E2E2E2E2E2E2E2E2E2E2E2E2E2E2E2E2E2E2E2E2E2E2E2E2E2E2E2E2E2E2E2E2E2E2E2E2E2E2E2E2E2E2E2E2E2E2E2E2E2E2E2E2E2E2E2E2E2E2E2E2E2E2E2E2E2E2E2E2E2E2E2E2E2E2E2E2F5E2E2E2E2E2E2E2E2E2E2E2E2E2E2E2F5E2E2E2E2E2E2E2E2E2E2E2F5F5E2
310
E2E2E2E2E2E2E2E2E2E2E2E2E2E2E2E2E2E2E2E2E2E2E2E2E2E2F5E2E2E2E2E2E2E2E2E2E2E2E2E2E2E2E2E2E2E2E2E2E2E2E2E2E2E2E2E2E2E2E2E2E2E2E2E2E2E2E2E2E2E2E2E2E2E2E2E2E2E2E2E2E2E2E2E2E2E2E2E2E2E2E2E2E2E2E2E2E2E2E2E2E2E2E2E2E2E2E2E2E2E2E2E2E2E2E2E2E2E2E2E2E2E2E2E2E2E2E2
310
E2E2E2E2E2E2E2E2E2E2E2E2E2E2E2E2E2E2E2E2E2E2F5E2E2E2E2E2E2E2E2E2E2E2E2E2E2E2E2E2E2E2E2E2E2E2E2E2E2E2F5F5E2E2E2E2E2E2E2E2E2E2E2E2E2E2E2E2E2E2E2E2E2E2E2E2E2E2E2F5E2E2E2E2E2E2E2E2E2E2E2E2E2E2E2E2E2E2E2E2E2E2E2E2E2E2E2E2E2E2E2E2E2E2E2E2E2E2E2E2E2E2E2E2E2E2E2
310
E2E2E2E2E2E2E2E2E2E2E2E2E2E2E2E2E2E2E2E2E2E2E2E2E2E2E2E2E2E2E2E2E2E2E2E2E2E2E2E2E2E2E2E2E2E2E2E2E2E2E2E2E2E2E2E2E2E2E2E2E2E2E2E2E2E2E2E2E2E2E2E2E2E2E2F5E2E2E2E2E2E2E2E2E2E2E2E2E2E2E2E2E2E2E2E2E2E2E2E2E2E2E2F5F5E2E2E2E2E2E2E2E2E2E2E2E2E2E2E2E2E2E2E2E2E2E2
310
E2E2E2E2E2F5E2E2E2E2E2E2E2E2E2E2E2E2E2E2E2E2E2E2E2E2E2E2E2E2E2E2E2E2E2E2E2E2E2E2E2E2E2E2E2E2E2E2E2E2E2E2E2E2E2E2E2E2E2E2E2E2E2E2E2E2E2E2E2E2E2E2E2E2E2E2E2E2E2E2E2E2E2E2E2E2E2E2E2E2E2E2E2E2E2E2E2E2E2E2E2E2E2E2E2E2E2E2E2E2E2E2E2E2E2E2E2E2E2E2E2E2E2E2E2E2E2
310
E2F5E2E2E2E2E2E2E2E2E2E2E2E2E2E2E2E2E2E2E2E2E2E2E2E2E2E2E2F5F5E2E2E2E2E2E2E2E2E2E2E2E2E2E2E2E2E2E2E2E2E2E2E2E2E2E2E2F5E2E2E2E2E2E2E2E2E2E2E2E2E2E2E2E2E2E2E2E2E2E2E2E2E2E2E2E2E2E2E2E2E2E2E2E2E2E2E2E2E2E2E2E2E2E2E2E2E2E2E2E2E2E2E2E2E2E2E2E2E2E2E2E2E2E2E2E2
310
E2E2E2E2E2E2E2E2E2E2E2E2E2E2E2E2E2E2E2E2E2E2E2E2E2E2E2E2E2E2E2E2E2E2E2E2E2E2E2E2E2E2E2E2E2E2E2E2E2E2E2E2E2E2F5E2E2E2E2E2E2E2E2E2E2E2E2E2E2E2E2E2E2E2E2E2E2E2E2E2E2E2F5F5E2E2E2E2E2E2E2E2E2E2E2E2E2E2E2E2E2E2E2E2E2E2E2E2E2E2E2F5E2E2E2E2E2E2E2E2E2E2E2E2E2E2E2
310
E2E2E2E2E2E2E2E2E2E2E2E2E2E2E2E2E2E2E2E2E2E2E2E2E2E2E2E2E2E2E2E2E2E2E2E2E2E2E2E2E2E2E2E2E2E2E2E2E2E2E2E2E2E2E2E2E2E2E2E2E2E2E2E2E2E2E2E2E2E2E2E2E2E2E2E2E2E2E2E2E2E2E2E2E2E2E2E2E2E2E2E2E2E2E2E2E2E2E2E2E2E2E2E2E2E2E2F5E2E2E2E2E2E2E2E2E2E2E2E2E2E2E2E2E2E2E2
310
E2E2E2E2E2E2E2E2F5F5E2E2E2E2E2E2E2E2E2E2E2E2E2E2E2E2E2E2E2E2E2E2E2E2E2E2E2F5E2E2E2E2E2E2E2E2E2E2E2E2E2E2E2E2E2E2E2E2E2E2E2E2E2E2E2E2E2E2E2E2E2E2E2E2E2E2E2E2E2E2E2E2E2E2E2E2E2E2E2E2E2E2E2E2E2E2E2E2E2E2E2E2E2E2E2E2E2E2E2E2E2E2E2E2E2E2E2E2E2E2E2E2E2E2E2E2E2
310
E2E2E2E2E2E2E2E2E2E2E2E2E2E2E2E2E2E2E2E2E2E2E2E2E2E2E2E2E2E2E2E2E2F5E2E2E2E2E2E2E2E2E2E2E2E2E2E2E2E2E2E2E2E2E2E2E2E2E2E2E2F5F5E2E2E2E2E2E2E2E2E2E2E2E2E2E2E2E2E2E2E2E2E2E2E2E2E2E2E2F5E2E2E2E2E2E2E2E2E2E2E2E2E2E2E2E2E2E2E2E2E2E2E2E2E2E2E2E2E2E2E2E2E2E2E2E2
310
E2E2E2E2E2E2E2E2E2E2E2E2E2E2E2E2E2E2E2E2E2E2E2E2E2E2E2E2E2E2E2E2E2E2E2E2E2E2E2E2E2E2E2E2E2E2E2E2E2E2E2E2E2E2E2E2E2E2E2E2E2E2E2E2E2E2E2E2E2E2E2E2E2E2E2E2E2E2E2E2E2E2E2E2E2E2F5E2E2E2E2E2E2E2E2E2E2E2E2E2E2E2E2E2E2E2E2E2E2E2E2E2E2E2F5F5E2E2E2E2E2E2E2E2E2E2E2
310
E2E2E2E2E2E2E2E2E2E2E2E2E2E2E2E2F5E2E2E2E2E2E2E2E2E2E2E2E2E2E2E2E2E2E2E2E2E2E2E2E2E2E2E2E2E2E2E2E2E2E2E2E2E2E2E2E2E2E2E2E2E2E2E2E2E2E2E2E2E2E2E2E2E2E2E2E2E2E2E2E2E2E2E2E2E2E2E2E2E2E2E2E2E2E2E2E2E2E2E2E2E2E2E2E2E2E2E2E2E2E2E2E2E2E2E2E2E2E2E2E2E2E2E2E2E2E2
310
E2E2E2E2E2E2E2E2E2E2E2E2F5E2E2E2E2E2E2E2E2E2E2E2E2E2E2E2E2E2E2E2E2E2E2E2E2E2E2E2F5F5E2E2E2E2E2E2E2E2E2E2E2E2E2E2E2E2E2E2E2E2E2E2E2E2E2E2E2F5E2E2E2E2E2E2E2E2E2E2E2E2E2E2E2E2E2E2E2E2E2E2E2E2E2E2E2E2E2E2E2E2E2E2E2E2E2E2E2E2E2E2E2E2E2E2E2E2E2E2E2E2E2E2E2E2E2
310
E2E2E2E2E2E2E2E2E2E2E2E2E2E2E2E2E2E2E2E2E2E2E2E2E2E2E2E2E2E2E2E2E2E2E2E2E2E2E2E2E2E2E2E2E2E2E2E2E2E2E2E2E2E2E2E2E2E2E2E2E2E2E2E2E2F5E2E2E2E2E2E2E2E2E2E2E2E2E2E2E2E2E2E2E2E2E2E2E2E2E2E2E2F5F5E2E2E2E2E2E2E2E2E2E2E2F5E2E2E2E2E2E2E2E2E2E2E2E2E2E2E2F5E2E2E2E2
310
E2E2E2E2E2E2E2E2E2E2E2E2E2E2E2E2E2E2E2E2E2E2E2E2E2E2E2E2E2E2E2E2E2E2E2E2E2E2E2E2E2E2E2E2E2E2E2E2E2E2E2E2E2E2E2E2E2E2E2E2E2E2E2E2E2E2E2E2E2E2E2E2E2E2E2E2E2E2E2E2E2E2E2E2E2E2E2E2E2E2E2E2E2E2E2E2E2E2E2E2E2E2E2E2E2E2E2E2E2E2E2E2E2E2E2E2E2E2F5E2E2E2E2E2E2E2E2
310
E2E2E2E2E2E2E2F5E2E2E2E2E2E2E2E2E2E2E2F5F5E2E2E2E2E2E2E2E2E2E2E2F5E2E2E2E2E2E2E2E2E2E2E2E2E2E2E2F5E2E2E2E2E2E2E2E2E2E2E2E2E2E2E2E2E2E2E2E2E2E2E2E2E2E2E2E2E2E2E2E2E2E2E2E2E2E2E2E2E2E2E2E2E2E2E2E2E2E2E2E2E2E2E2E2E2E2E2E2E2E2E2E2E2E2E2E2E2E2E2E2E2E2E2E2E2E2
310
E2E2E2E2E2E2E2E2E2E2E2E2E2E2E2E2E2E2E2E2E2E2E2E2E2E2E2E2E2E2E2E2E2E2E2E2E2E2E2E2E2E2E2E2F5E2E2E2E2E2E2E2E2E2E2E2E2E2E2E2F5E2E2E2E2E2E2E2E2E2E2E2F5F5E2E2E2E2E2E2E2E2E2E2E2F5E2E2E2E2E2E2E2E2E2E2E2E2E2E2E2F5E2E2E2E2E2E2E2E2E2E2E2E2E2E2E2E2E2E2E2E2E2E2E2E2E2
310
E2E2E2E2E2E2E2E2E2E2E2E2E2E2E2E2E2E2E2E2E2E2E2E2E2E2E2E2E2E2E2E2E2E2E2E2E2E2E2E2E2E2E2E2E2E2E2E2E2E2E2E2E2E2E2E2E2E2E2E2E2E2E2E2E2E2E2E2E2E2E2E2E2E2E2E2E2E2E2E2E2E2E2E2E2E2E2E2E2E2E2E2E2E2E2E2E2F5E2E2E2E2E2E2E2E2E2E2E2E2E2E2E2F5E2E2E2E2E2E2E2E2E2E2E2F5F5
310
E2E2E2E2E2E2E2E2E2E2E2F5E2E2E2E2E2E2E2E2E2E2E2E2E2E2E2F5E2E2E2E2E2E2E2E2E2E2E2E2E2E2E2E2E2E2E2E2E2E2E2E2E2E2E2E2E2E2E2E2E2E2E2E2E2E2E2E2E2E2E2E2E2E2E2E2E2E2E2E2E2E2E2E2E2E2E2E2E2E2E2E2E2E2E2E2E2E2E2E2E2E2E2E2E2E2E2E2E2E2E2E2E2E2E2E2E2E2E2E2E2E2E2E2E2E2E2
310
E2E2E2E2E2E2E2E2E2E2E2E2E2E2E2E2E2E2E2E2E2E2E2F5E2E2E2E2E2E2E2E2E2E2E2E2E2E2E2F5E2E2E2E2E2E2E2E2E2E2E2F5F5E2E2E2E2E2E2E2E2E2E2E2F5E2E2E2E2E2E2E2E2E2E2E2E2E2E2E2F5E2E2E2E2E2E2E2E2E2E2E2E2E2E2E2E2E2E2E2E2E2E2E2E2E2E2E2E2E2E2E2E2E2E2E2E2E2E2E2E2E2E2E2E2E2E2
310
E2E2E2E2E2E2E2E2E2E2E2E2E2E2E2E2E2E2E2E2E2E2E2E2E2E2E2E2E2E2E2E2E2E2E2E2E2E2E2E2E2E2E2E2E2E2E2E2E2E2E2E2E2E2E2E2E2E2E2E2E2E2E2E2E2E2E2E2E2E2E2E2E2E2E2E2F5E2E2E2E2E2E2E2E2E2E2E2E2E2E2E2F5E2E2E2E2E2E2E2E2E2E2E2F5F5E2E2E2E2E2E2E2E2E2E2E2F5E2E2E2E2E2E2E2E2E2
310
E2E2E2E2E2E2F5E2E2E2E2E2E2E2E2E2E2E2E2E2E2E2E2E2E2E2E2E2E2E2E2E2E2E2E2E2E2E2E2E2E2E2E2E2E2E2E2E2E2E2E2E2E2E2E2E2E2E2E2E2E2E2E2E2E2E2E2E2E2E2E2E2E2E2E2E2E2E2E2E2E2E2E2E2E2E2E2E2E2E2E2E2E2E2E2E2E2E2E2E2E2E2E2E2E2E2E2E2E2E2E2E2E2E2E2E2E2E2E2E2E2E2E2E2E2E2E2
310
E2E2F5E2E2E2E2E2E2E2E2E2E2E2E2E2E2E2F5E2E2E2E2E2E2E2E2E2E2E2F5F5E2E2E2E2E2E2E2E2E2E2E2F5E2E2E2E2E2E2E2E2E2E2E2E2E2E2E2F5E2E2E2E2E2E2E2E2E2E2E2E2E2E2E2E2E2E2E2E2E2E2E2E2E2E2E2E2E2E2E2E2E2E2E2E2E2E2E2E2E2E2E2E2E2E2E2E2E2E2E2E2E2E2E2E2E2E2E2E2E2E2E2E2E2E2E2
310
E2E2E2E2E2E2E2E2E2E2E2E2E2E2E2E2E2E2E2E2E2E2E2E2E2E2E2E2E2E2E2E2E2E2E2E2E2E2E2E2E2E2E2E2E2E2E2E2E2E2E2E2E2E2E2F5E2E2E2E2E2E2E2E2E2E2E2E2E2E2E2F5E2E2E2E2E2E2E2E2E2E2E2F5F5E2E2E2E2E2E2E2E2E2E2E2F5E2E2E2E2E2E2E2E2E2E2E2E2E2E2E2F5E2E2E2E2E2E2E2E2E2E2E2E2E2E2
310
E2E2E2E2E2E2E2E2E2E2E2E2E2E2E2E2E2E2E2E2E2E2E2E2E2E2E2E2E2E2E2E2E2E2E2E2E2E2E2E2E2E2E2E2E2E2E2E2E2E2E2E2E2E2E2E2E2E2E2E2E2E2E2E2E2E2E2E2E2E2E2E2E2E2E2E2E2E2E2E2E2E2E2E2E2E2E2E2E2E2E2E2E2E2E2E2E2E2E2E2E2E2E2E2E2E2E2E2F5E2E2E2E2E2E2E2E2E2E2E2E2E2E2E2F5E2E2
310
E2E2E2E2E2E2E2E2E2F5F5E2E2E2E2E2E2E2E2E2E2E2F5E2E2E2E2E2E2E2E2E2E2E2E2E2E2E2F5E2E2E2E2E2E2E2E2E2E2E2E2E2E2E2E2E2E2E2E2E2E2E2E2E2E2E2E2E2E2E2E2E2E2E2E2E2E2E2E2E2E2E2E2E2E2E2E2E2E2E2E2E2E2E2E2E2E2E2E2E2E2E2E2E2E2E2E2E2E2E2E2E2E2E2E2E2E2E2E2E2E2E2E2E2E2E2E2
310
E2E2E2E2E2E2E2E2E2E2E2E2E2E2E2E2E2E2E2E2E2E2E2E2E2E2E2E2E2E2E2E2E2E2F5E2E2E2E2E2E2E2E2E2E2E2E2E2E2E2F5E2E2E2E2E2E2E2E2E2E2E2F5F5E2E2E2E2E2E2E2E2E2E2E2F5E2E2E2E2E2E2E2E2E2E2E2E2E2E2E2F5E2E2E2E2E2E2E2E2E2E2E2E2E2E2E2E2E2E2E2E2E2E2E2E2E2E2E2E2E2E2E2E2E2E2E2
310
E2E2E2E2E2E2E2E2E2E2E2E2E2E2E2E2E2E2E2E2E2E2E2E2E2E2E2E2E2E2E2E2E2E2E2E2E2E2E2E2E2E2E2E2E2E2E2E2E2E2E2E2E2E2E2E2E2E2E2E2E2E2E2E2E2E2E2E2E2E2E2E2E2E2E2E2E2E2E2E2E2E2E2E2E2E2E2F5E2E2E2E2E2E2E2E2E2E2E2E2E2E2E2F5E2E2E2E2E2E2E2E2E2E2E2F5F5E2E2E2E2E2E2E2E2E2E2
310
E2F5E2E2E2E2E2E2E2E2E2E2E2E2E2E2E2F5E2E2E2E2E2E2E2E2E2E2E2E2E2E2E2E2E2E2E2E2E2E2E2E2E2E2E2E2E2E2E2E2E2E2E2E2E2E2E2E2E2E2E2E2E2E2E2E2E2E2E2E2E2E2E2E2E2E2E2E2E2E2E2E2E2E2E2E2E2E2E2E2E2E2E2E2E2E2E2E2E2E2E2E2E2E2E2E2E2E2E2E2E2E2E2E2E2E2E2E2E2E2E2E2E2E2E2E2E2
310
E2E2E2E2E2E2E2E2E2E2E2E2E2F5E2E2E2E2E2E2E2E2E2E2E2E2E2E2E2F5E2E2E2E2E2E2E2E2E2E2E2F5F5E2E2E2E2E2E2E2E2E2E2E2F5E2E2E2E2E2E2E2E2E2E2E2E2E2E2E2F5E2E2E2E2E2E2E2E2E2E2E2E2E2E2E2E2E2E2E2E2E2E2E2E2E2E2E2E2E2E2E2E2E2E2E2E2E2E2E2E2E2E2E2E2E2E2E2E2E2E2E2E2E2E2E2E2
310
E2E2E2E2E2E2E2E2E2E2E2E2E2E2E2E2E2E2E2E2E2E2E2E2E2E2E2E2E2E2E2E2E2E2E2E2E2E2E2E2E2E2E2E2E2E2E2E2E2E2E2E2E2E2E2E2E2E2E2E2E2E2E2E2E2E2F5E2E2E2E2E2E2E2E2E2E2E2E2E2E2E2F5E2E2E2E2E2E2E2E2E2E2E2F5F5E2E2E2E2E2E2E2E2E2E2E2F5E2E2E2E2E2E2E2E2E2E2E2E2E2E2E2F5E2E2E2
310
E2E2E2E2E2E2E2E2E2E2E2E2E2E2E2E2E2E2E2E2E2E2E2E2E2E2E2E2E2E2E2E2E2E2E2E2E2E2E2E2E2E2E2E2E2E2E2E2E2E2E2E2E2E2E2E2E2E2E2E2E2E2E2E2E2E2E2E2E2E2E2E2E2E2E2E2E2E2E2E2E2E2E2E2E2E2E2E2E2E2E2E2E2E2E2E2E2E2E2E2E2E2E2E2E2E2E2E2E2E2E2E2E2E2E2E2E2E2E2F5E2E2E2E2E2E2E2
310
E2E2E2E2E2E2E2E2F5E2E2E2E2E2E2E2E2E2E2E2F5F5E2E2E2E2E2E2E2E2E2E2E2F5E2E2E2E2E2E2E2E2E2E2E2E2E2E2E2F5E2E2E2E2E2E2E2E2E2E2E2E2E2E2E2E2E2E2E2E2E2E2E2E2E2E2E2E2E2E2E2E2E2E2E2E2E2E2E2E2E2E2E2E2E2E2E2E2E2E2E2E2E2E2E2E2E2E2E2E2E2E2E2E2E2E2E2E2E2E2E2E2E2E2E2E2E2
310
E2E2E2E2E2E2E2E2E2E2E2E2E2E2E2E2E2E2E2E2E2E2E2E2E2E2E2E2E2E2E2E2E2E2E2E2E2E2E2E2E2E2E2E2E2F5E2E2E2E2E2E2E2E2E2E2E2E2E2E2E2F5E2E2E2E2E2E2E2E2E2E2E2F5F5E2E2E2E2E2E2E2E2E2E2E2F5E2E2E2E2E2E2E2E2E2E2E2E2E2E2E2F5E2E2E2E2E2E2E2E2E2E2E2E2E2E2E2E2E2E2E2E2E2E2E2E2
310
E2E2E2E2E2E2E2E2E2E2E2E2E2E2E2E2E2E2E2E2E2E2E2E2E2E2E2E2E2E2E2E2E2E2E2E2E2E2E2E2E2E2E2E2E2E2E2E2E2E2E2E2E2E2E2E2E2E2E2E2E2E2E2E2E2E2E2E2E2E2E2E2E2E2E2E2E2E2E2E2E2E2E2E2E2E2E2E2E2E2E2E2E2E2E2E2E2E2F5E2E2E2E2E2E2E2E2E2E2E2E2E2E2E2F5E2E2E2E2E2E2E2E2E2E2E2F5
310
F5E2E2E2E2E2E2E2E2E2E2E2E2E2E2E2E2E2E2E2E2E2E2E2E2E2E2E2F5E2E2E2E2E2E2E2E2E2E2E2E2E2E2E2E2E2E2E2E2E2E2E2E2E2E2E2E2E2E2E2E2E2E2E2E2E2E2E2E2E2E2E2E2E2E2E2E2E2E2E2E2E2E2E2E2E2E2E2E2E2E2E2E2E2E2E2E2E2E2E2E2E2E2E2E2E2E2E2E2E2E2E2E2E2E2E2E2E2E2E2E2E2E2E2E2E2E2
310
E2E2E2E2E2E2E2E2E2E2E2E2E2E2E2E2E2E2E2E2E2E2E2E2F5E2E2E2E2E2E2E2E2E2E2E2E2E2E2E2E2E2E2E2E2E2E2E2E2E2E2E2F5F5E2E2E2E2E2E2E2E2E2E2E2E2E2E2E2E2E2E2E2E2E2E2E2E2E2E2E2F5E2E2E2E2E2E2E2E2E2E2E2E2E2E2E2E2E2E2E2E2E2E2E2E2E2E2E2E2E2E2E2E2E2E2E2E2E2E2E2E2E2E2E2E2E2
310
E2E2E2E2E2E2E2E2E2E2E2E2E2E2E2E2E2E2E2E2E2E2E2E2E2E2E2E2E2E2E2E2E2E2E2E2E2E2E2E2E2E2E2E2E2E2E2E2E2E2E2E2E2E2E2E2E2E2E2E2E2E2E2E2E2E2E2E2E2E2E2E2E2E2E2E2E2F5E2E2E2E2E2E2E2E2E2E2E2E2E2E2E2E2E2E2E2E2E2E2E2E2E2E2E2F5F5E2E2E2E2E2E2E2E2E2E2E2E2E2E2E2E2E2E2E2E2
310
E2E2E2E2E2E2E2F5E2E2E2E2E2E2E2E2E2E2E2E2E2E2E2E2E2E2E2E2E2E2E2E2E2E2E2E2E2E2E2E2E2E2E2E2E2E2E2E2E2E2E2E2E2E2E2E2E2E2E2E2E2E2E2E2E2E2E2E2E2E2E2E2E2E2E2E2E2E2E2E2E2E2E2E2E2E2E2E2E2E2E2E2E2E2E2E2E2E2E2E2E2E2E2E2E2E2E2E2E2E2E2E2E2E2E2E2E2E2E2E2E2E2E2E2E2E2E2
310
E2E2E2F5E2E2E2E2E2E2E2E2E2E2E2E2E2E2E2E2E2E2E2E2E2E2E2E2E2E2E2F5F5E2E2E2E2E2E2E2E2E2E2E2E2E2E2E2E2E2E2E2E2E2E2E2E2E2E2E2F5E2E2E2E2E2E2E2E2E2E2E2E2E2E2E2E2E2E2E2E2E2E2E2E2E2E2E2E2E2E2E2E2E2E2E2E2E2E2E2E2E2E2E2E2E2E2E2E2E2E2E2E2E2E2E2E2E2E2E2E2E2E2E2E2E2E2
310
E2E2E2E2E2E2E2E2E2E2E2E2E2E2E2E2E2E2E2E2E2E2E2E2E2E2E2E2E2E2E2E2E2E2E2E2E2E2E2E2E2E2E2E2E2E2E2E2E2E2E2E2E2E2E2E2F5E2E2E2E2E2E2E2E2E2E2E2E2E2E2E2E2E2E2E2E2E2E2E2E2E2E2E2F5F5E2E2E2E2E2E2E2E2E2E2E2E2E2E2E2E2E2E2E2E2E2E2E2E2E2E2E2F5E2E2E2E2E2E2E2E2E2E2E2E2E2
310
E2E2E2E2E2E2E2E2E2E2E2E2E2E2E2E2E2E2E2E2E2E2E2E2E2E2E2E2E2E2E2E2E2E2E2E2E2E2E2E2E2E2E2E2E2E2E2E2E2E2E2E2E2E2E2E2E2E2E2E2E2E2E2E2E2E2E2E2E2E2E2E2E2E2E2E2E2E2E2E2E2E2E2E2E2E2E2E2E2E2E2E2E2E2E2E2E2E2E2E2E2E2E2E2E2E2E2E2E2F5E2E2E2E2E2E2E2E2E2E2E2E2E2E2E2E2E2
310
E2E2E2E2E2E2E2E2E2E2F5F5E2E2E2E2E2E2E2E2E2E2E2E2E2E2E2E2E2E2E2E2E2E2E2E2E2E2E2F5E2E2E2E2E2E2E2E2E2E2E2E2E2E2E2E2E2E2E2E2E2E2E2E2E2E2E2E2E2E2E2E2E2E2E2E2E2E2E2E2E2E2E2E2E2E2E2E2E2E2E2E2E2E2E2E2E2E2E2E2E2E2E2E2E2E2E2E2E2E2E2E2E2E2E2E2E2E2E2E2E2E2E2E2E2E2E2
310
E2E2E2E2E2E2E2E2E2E2E2E2E2E2E2E2E2E2E2E2E2E2E2E2E2E2E2E2E2E2E2E2E2E2E2F5E2E2E2E2E2E2E2E2E2E2E2E2E2E2E2E2E2E2E2E2E2E2E2E2E2E2E2F5F5E2E2E2E2E2E2E2E2E2E2E2E2E2E2E2E2E2E2E2E2E2E2E2E2E2E2E2F5E2E2E2E2E2E2E2E2E2E2E2E2E2E2E2E2E2E2E2E2E2E2E2E2E2E2E2E2E2E2E2E2E2E2
310
E2E2E2E2E2E2E2E2E2E2E2E2E2E2E2E2E2E2E2E2E2E2E2E2E2E2E2E2E2E2E2E2E2E2E2E2E2E2E2E2E2E2E2E2E2E2E2E2E2E2E2E2E2E2E2E2E2E2E2E2E2E2E2E2E2E2E2E2E2E2E2E2E2E2E2E2E2E2E2E2E2E2E2E2E2E2E2E2F5E2E2E2E2E2E2E2E2E2E2E2E2E2E2E2E2E2E2E2E2E2E2E2E2E2E2E2F5F5E2E2E2E2E2E2E2E2E2
310
E2E2E2E2E2E2E2E2E2E2E2E2E2E2E2E2E2E2F5E2E2E2E2E2E2E2E2E2E2E2E2E2E2E2E2E2E2E2E2E2E2E2E2E2E2E2E2E2E2E2E2E2E2E2E2E2E2E2E2E2E2E2E2E2E2E2E2E2E2E2E2E2E2E2E2E2E2E2E2E2E2E2E2E2E2E2E2E2E2E2E2E2E2E2E2E2E2E2E2E2E2E2E2E2E2E2E2E2E2E2E2E2E2E2E2E2E2E2E2E2E2E2E2E2E2E2E2
310
E2E2E2E2E2E2E2E2E2E2E2E2E2E2F5E2E2E2E2E2E2E2E2E2E2E2E2E2E2E2E2E2E2E2E2E2E2E2E2E2E2E2F5F5E2E2E2E2E2E2E2E2E2E2E2F5E2E2E2E2E2E2E2E2E2E2E2E2E2E2E2F5E2E2E2E2E2E2E2E2E2E2E2E2E2E2E2E2E2E2E2E2E2E2E2E2E2E2E2E2E2E2E2E2E2E2E2E2E2E2E2E2E2E2E2E2E2E2E2E2E2E2E2E2E2E2E2
310
E2E2E2E2E2E2E2E2E2E2E2E2E2E2E2E2E2E2E2E2E2E2E2E2E2E2E2E2E2E2E2E2E2E2E2E2E2E2E2E2E2E2E2E2E2E2E2E2E2E2E2E2E2E2E2E2E2E2E2E2E2E2E2E2E2E2E2F5E2E2E2E2E2E2E2E2E2E2E2E2E2E2E2F5E2E2E2E2E2E2E2E2E2E2E2F5F5E2E2E2E2E2E2E2E2E2E2E2F5E2E2E2E2E2E2E2E2E2E2E2E2E2E2E2F5E2E2
310
E2E2E2E2E2E2E2E2E2E2E2E2E2E2E2E2E2E2E2E2E2E2E2E2E2E2E2E2E2E2E2E2E2E2E2E2E2E2E2E2E2E2E2E2E2E2E2E2E2E2E2E2E2E2E2E2E2E2E2E2E2E2E2E2E2E2E2E2E2E2E2E2E2E2E2E2E2E2E2E2E2E2E2E2E2E2E2E2E2E2E2E2E2E2E2E2E2E2E2E2E2E2E2E2E2E2E2E2E2E2E2E2E2E2E2E2E2E2E2E2F5E2E2E2E2E2E2
310
E2E2E2E2E2E2E2E2E2F5E2E2E2E2E2E2E2E2E2E2E2F5F5E2E2E2E2E2E2E2E2E2E2E2F5E2E2E2E2E2E2E2E2E2E2E2E2E2E2E2F5E2E2E2E2E2E2E2E2E2E2E2E2E2E2E2E2E2E2E2E2E2E2E2E2E2E2E2E2E2E2E2E2E2E2E2E2E2E2E2E2E2E2E2E2E2E2E2E2E2E2E2E2E2E2E2E2E2E2E2E2E2E2E2E2E2E2E2E2E2E2E2E2E2E2E2E2
310
E2E2E2E2E2E2E2E2E2E2E2E2E2E2E2E2E2E2E2E2E2E2E2E2E2E2E2E2E2E2E2E2E2E2E2E2E2E2E2E2E2E2E2E2E2E2F5E2E2E2E2E2E2E2E2E2E2E2E2E2E2E2F5E2E2E2E2E2E2E2E2E2E2E2F5F5E2E2E2E2E2E2E2E2E2E2E2F5E2E2E2E2E2E2E2E2E2E2E2E2E2E2E2F5E2E2E2E2E2E2E2E2E2E2E2E2E2E2E2E2E2E2E2E2E2E2E2
310
E2E2E2E2E2E2E2E2E2E2E2E2E2E2E2E2E2E2E2E2E2E2E2E2E2E2E2E2E2E2E2E2E2E2E2E2E2E2E2E2E2E2E2E2E2E2E2E2E2E2E2E2E2E2E2E2E2E2E2E2E2E2E2E2E2E2E2E2E2E2E2E2E2E2E2E2E2E2E2E2E2E2E2E2E2E2E2E2E2E2E2E2E2E2E2E2E2E2E2F5E2E2E2E2E2E2E2E2E2E2E2E2E2E2E2F5E2E2E2E2E2E2E2E2E2E2E2
310
F5F5E2E2E2E2E2E2E2E2E2E2E2F5E2E2E2E2E2E2E2E2E2E2E2E2E2E2E2F5E2E2E2E2E2E2E2E2E2E2E2E2E2E2E2E2E2E2E2E2E2E2E2E2E2E2E2E2E2E2E2E2E2E2E2E2E2E2E2E2E2E2E2E2E2E2E2E2E2E2E2E2E2E2E2E2E2E2E2E2E2E2E2E2E2E2E2E2E2E2E2E2E2E2E2E2E2E2E2E2E2E2E2E2E2E2E2E2E2E2E2E2E2E2E2E2E2
310
E2E2E2E2E2E2E2E2E2E2E2E2E2E2E2E2E2E2E2E2E2E2E2E2E2F5E2E2E2E2E2E2E2E2E2E2E2E2E2E2E2F5E2E2E2E2E2E2E2E2E2E2E2F5F5E2E2E2E2E2E2E2E2E2E2E2F5E2E2E2E2E2E2E2E2E2E2E2E2E2E2E2F5E2E2E2E2E2E2E2E2E2E2E2E2E2E2E2E2E2E2E2E2E2E2E2E2E2E2E2E2E2E2E2E2E2E2E2E2E2E2E2E2E2E2E2E2
310
E2E2E2E2E2E2E2E2E2E2E2E2E2E2E2E2E2E2E2E2E2E2E2E2E2E2E2E2E2E2E2E2E2E2E2E2E2E2E2E2E2E2E2E2E2E2E2E2E2E2E2E2E2E2E2E2E2E2E2E2E2E2E2E2E2E2E2E2E2E2E2E2E2E2E2E2E2E2F5E2E2E2E2E2E2E2E2E2E2E2E2E2E2E2F5E2E2E2E2E2E2E2E2E2E2E2F5F5E2E2E2E2E2E2E2E2E2E2E2F5E2E2E2E2E2E2E2
310
E2E2E2E2E2E2E2E2F5E2E2E2E2E2E2E2E2E2E2E2E2E2E2E2E2E2E2E2E2E2E2E2E2E2E2E2E2E2E2E2E2E2E2E2E2E2E2E2E2E2E2E2E2E2E2E2E2E2E2E2E2E2E2E2E2E2E2E2E2E2E2E2E2E2E2E2E2E2E2E2E2E2E2E2E2E2E2E2E2E2E2E2E2E2E2E2E2E2E2E2E2E2E2E2E2E2E2E2E2E2E2E2E2E2E2E2E2E2E2E2E2E2E2E2E2E2E2
310
E2E2E2E2F5E2E2E2E2E2E2E2E2E2E2E2E2E2E2E2F5E2E2E2E2E2E2E2E2E2E2E2F5F5E2E2E2E2E2E2E2E2E2E2E2F5E2E2E2E2E2E2E2E2E2E2E2E2E2E2E2F5E2E2E2E2E2E2E2E2E2E2E2E2E2E2E2E2E2E2E2E2E2E2E2E2E2E2E2E2E2E2E2E2E2E2E2E2E2E2E2E2E2E2E2E2E2E2E2E2E2E2E2E2E2E2E2E2E2E2E2E2E2E2E2E2E2
310
E2E2E2E2E2E2E2E2E2E2E2E2E2E2E2E2E2E2E2E2E2E2E2E2E2E2E2E2E2E2E2E2E2E2E2E2E2E2E2E2E2E2E2E2E2E2E2E2E2E2E2E2E2E2E2E2E2F5E2E2E2E2E2E2E2E2E2E2E2E2E2E2E2F5E2E2E2E2E2E2E2E2E2E2E2F5F5E2E2E2E2E2E2E2E2E2E2E2F5E2E2E2E2E2E2E2E2E2E2E2E2E2E2E2F5E2E2E2E2E2E2E2E2E2E2E2E2
310
E2E2E2E2E2E2E2E2E2E2E2E2E2E2E2E2E2E2E2E2E2E2E2E2E2E2E2E2E2E2E2E2E2E2E2E2E2E2E2E2E2E2E2E2E2E2E2E2E2E2E2E2E2E2E2E2E2E2E2E2E2E2E2E2E2E2E2E2E2E2E2E2E2E2E2E2E2E2E2E2E2E2E2E2E2E2E2E2E2E2E2E2E2E2E2E2E2E2E2E2E2E2E2E2E2E2E2E2E2E2F5E2E2E2E2E2E2E2E2E2E2E2E2E2E2E2F5
310
E2E2E2E2E2E2E2E2E2E2E2F5F5E2E2E2E2E2E2E2E2E2E2E2F5E2E2E2E2E2E2E2E2E2E2E2E2E2E2E2F5E2E2E2E2E2E2E2E2E2E2E2E2E2E2E2E2E2E2E2E2E2E2E2E2E2E2E2E2E2E2E2E2E2E2E2E2E2E2E2E2E2E2E2E2E2E2E2E2E2E2E2E2E2E2E2E2E2E2E2E2E2E2E2E2E2E2E2E2E2E2E2E2E2E2E2E2E2E2E2E2E2E2E2E2E2E2
310
E2E2E2E2E2E2E2E2E2E2E2E2E2E2E2E2E2E2E2E2E2E2E2E2E2E2E2E2E2E2E2E2E2E2E2E2F5E2E2E2E2E2E2E2E2E2E2E2E2E2E2E2F5E2E2E2E2E2E2E2E2E2E2E2F5F5E2E2E2E2E2E2E2E2E2E2E2F5E2E2E2E2E2E2E2E2E2E2E2E2E2E2E2F5E2E2E2E2E2E2E2E2E2E2E2E2E2E2E2E2E2E2E2E2E2E2E2E2E2E2E2E2E2E2E2E2E2
310
E2E2E2E2E2E2E2E2E2E2E2E2E2E2E2E2E2E2E2E2E2E2E2E2E2E2E2E2E2E2E2E2E2E2E2E2E2E2E2E2E2E2E2E2E2E2E2E2E2E2E2E2E2E2E2E2E2E2E2E2E2E2E2E2E2E2E2E2E2E2E2E2E2E2E2E2E2E2E2E2E2E2E2E2E2E2E2E2E2F5E2E2E2E2E2E2E2E2E2E2E2E2E2E2E2F5E2E2E2E2E2E2E2E2E2E2E2F5F5E2E2E2E2E2E2E2E2
310
E2E2E2F5E2E2E2E2E2E2E2E2E2E2E2E2E2E2E2F5E2E2E2E2E2E2E2E2E2E2E2E2E2E2E2E2E2E2E2E2E2E2E2E2E2E2E2E2E2E2E2E2E2E2E2E2E2E2E2E2E2E2E2E2E2E2E2E2E2E2E2E2E2E2E2E2E2E2E2E2E2E2E2E2E2E2E2E2E2E2E2E2E2E2E2E2E2E2E2E2E2E2E2E2E2E2E2E2E2E2E2E2E2E2E2E2E2E2E2E2E2E2E2E2E2E2E2
310
E2E2E2E2E2E2E2E2E2E2E2E2E2E2E2F5E2E2E2E2E2E2E2E2E2E2E2E2E2E2E2F5E2E2E2E2E2E2E2E2E2E2E2F5F5E2E2E2E2E2E2E2E2E2E2E2F5E2E2E2E2E2E2E2E2E2E2E2E2E2E2E2F5E2E2E2E2E2E2E2E2E2E2E2E2E2E2E2E2E2E2E2E2E2E2E2E2E2E2E2E2E2E2E2E2E2E2E2E2E2E2E2E2E2E2E2E2E2E2E2E2E2E2E2E2E2E2
310
E2E2E2E2E2E2E2E2E2E2E2E2E2E2E2E2E2E2E2E2E2E2E2E2E2E2E2E2E2E2E2E2E2E2E2E2E2E2E2E2E2E2E2E2E2E2E2E2E2E2E2E2E2E2E2E2E2E2E2E2E2E2E2E2E2E2E2E2F5E2E2E2E2E2E2E2E2E2E2E2E2E2E2E2F5E2E2E2E2E2E2E2E2E2E2E2F5F5E2E2E2E2E2E2E2E2E2E2E2F5E2E2E2E2E2E2E2E2E2E2E2E2E2E2E2F5E2
310
E2E2E2E2E2E2E2E2E2E2E2E2E2E2E2E2E2E2E2E2E2E2E2E2E2E2E2E2E2E2E2E2E2E2E2E2E2E2E2E2E2E2E2E2E2E2E2E2E2E2E2E2E2E2E2E2E2E2E2E2E2E2E2E2E2E2E2E2E2E2E2E2E2E2E2E2E2E2E2E2E2E2E2E2E2E2E2E2E2E2E2E2E2E2E2E2E2E2E2E2E2E2E2E2E2E2E2E2E2E2E2E2E2E2E2E2E2E2E2E2E2F5E2E2E2E2E2
310
E2E2E2E2E2E2E2E2E2E2F5E2E2E2E2E2E2E2E2E2E2E2F5F5E2E2E2E2E2E2E2E2E2E2E2F5E2E2E2E2E2E2E2E2E2E2E2E2E2E2E2F5E2E2E2E2E2E2E2E2E2E2E2E2E2E2E2E2E2E2E2E2E2E2E2E2E2E2E2E2E2E2E2E2E2E2E2E2E2E2E2E2E2E2E2E2E2E2E2E2E2E2E2E2E2E2E2E2E2E2E2E2E2E2E2E2E2E2E2E2E2E2E2E2E2E2E2
310
E2E2E2E2E2E2E2E2E2E2E2E2E2E2E2E2E2E2E2E2E2E2E2E2E2E2E2E2E2E2E2E2E2E2E2E2E2E2E2E2E2E2E2E2E2E2E2F5E2E2E2E2E2E2E2E2E2E2E2E2E2E2E2F5E2E2E2E2E2E2E2E2E2E2E2F5F5E2E2E2E2E2E2E2E2E2E2E2E2E2E2E2E2E2E2E2E2E2E2E2E2E2E2E2F5E2E2E2E2E2E2E2E2E2E2E2E2E2E2E2E2E2E2E2E2E2E2
310
E2E2E2E2E2E2E2E2E2E2E2E2E2E2E2E2E2E2E2E2E2E2E2E2E2E2E2E2E2E2E2E2E2E2E2E2E2E2E2E2E2E2E2E2E2E2E2E2E2E2E2E2E2E2E2E2E2E2E2E2E2E2E2E2E2E2E2E2E2E2E2E2E2E2E2E2E2E2E2E2E2E2E2E2E2E2E2E2E2E2E2E2E2E2E2E2E2E2E2E2F5E2E2E2E2E2E2E2E2E2E2E2E2E2E2E2E2E2E2E2E2E2E2E2E2E2E2
310
E2F5F5E2E2E2E2E2E2E2E2E2E2E2E2E2E2E2E2E2E2E2E2E2E2E2E2E2E2E2F5E2E2E2E2E2E2E2E2E2E2E2E2E2E2E2E2E2E2E2E2E2E2E2E2E2E2E2E2E2E2E2E2E2E2E2E2E2E2E2E2E2E2E2E2E2E2E2E2E2E2E2E2E2E2E2E2E2E2E2E2E2E2E2E2E2E2E2E2E2E2E2E2E2E2E2E2E2E2E2E2E2E2E2E2E2E2E2E2E2E2E2E2E2E2E2E2
310
E2E2E2E2E2E2E2E2E2E2E2E2E2E2E2E2E2E2E2E2E2E2E2E2E2E2F5E2E2E2E2E2E2E2E2E2E2E2E2E2E2E2E2E2E2E2E2E2E2E2E2E2E2E2F5F5E2E2E2E2E2E2E2E2E2E2E2E2E2E2E2E2E2E2E2E2E2E2E2E2E2E2E2F5E2E2E2E2E2E2E2E2E2E2E2E2E2E2E2E2E2E2E2E2E2E2E2E2E2E2E2E2E2E2E2E2E2E2E2E2E2E2E2E2E2E2E2
310
E2E2E2E2E2E2E2E2E2E2E2E2E2E2E2E2E2E2E2E2E2E2E2E2E2E2E2E2E2E2E2E2E2E2E2E2E2E2E2E2E2E2E2E2E2E2E2E2E2E2E2E2E2E2E2E2E2E2E2E2E2E2E2E2E2E2E2E2E2E2E2E2E2E2E2E2E2E2E2F5E2E2E2E2E2E2E2E2E2E2E2E2E2E2E2E2E2E2E2E2E2E2E2E2E2E2E2F5F5E2E2E2E2E2E2E2E2E2E2E2E2E2E2E2E2E2E2
310
E2E2E2E2E2E2E2E2E2F5E2E2E2E2E2E2E2E2E2E2E2E2E2E2E2E2E2E2E2E2E2E2E2E2E2E2E2E2E2E2E2E2E2E2E2E2E2E2E2E2E2E2E2E2E2E2E2E2E2E2E2E2E2E2E2E2E2E2E2E2E2E2E2E2E2E2E2E2E2E2E2E2E2E2E2E2E2E2E2E2E2E2E2E2E2E2E2E2E2E2E2E2E2E2E2E2E2E2E2E2E2E2E2E2E2E2E2E2E2E2E2E2E2E2E2E2E2
310
E2E2E2E2E2F5E2E2E2E2E2E2E2E2E2E2E2E2E2E2E2E2E2E2E2E2E2E2E2E2E2E2E2F5F5E2E2E2E2E2E2E2E2E2E2E2E2E2E2E2E2E2E2E2E2E2E2E2E2E2E2E2F5E2E2E2E2E2E2E2E2E2E2E2E2E2E2E2E2E2E2E2E2E2E2E2E2E2E2E2E2E2E2E2E2E2E2E2E2E2E2E2E2E2E2E2E2E2E2E2E2E2E2E2E2E2E2E2E2E2E2E2E2E2E2E2E2
310
E2E2E2E2E2E2E2E2E2E2E2E2E2E2E2E2E2E2E2E2E2E2E2E2E2E2E2E2E2E2E2E2E2E2E2E2E2E2E2E2E2E2E2E2E2E2E2E2E2E2E2E2E2E2E2E2E2E2F5E2E2E2E2E2E2E2E2E2E2E2E2E2E2E2E2E2E2E2E2E2E2E2E2E2E2E2F5F5E2E2E2E2E2E2E2E2E2E2E2E2E2E2E2E2E2E2E2E2E2E2E2E2E2E2E2F5E2E2E2E2E2E2E2E2E2E2E2
310
E2E2E2E2E2E2E2E2E2E2E2E2E2E2E2E2E2E2E2E2E2E2E2E2E2E2E2E2E2E2E2E2E2E2E2E2E2E2E2E2E2E2E2E2E2E2E2E2E2E2E2E2E2E2E2E2E2E2E2E2E2E2E2E2E2E2E2E2E2E2E2E2E2E2E2E2E2E2E2E2E2E2E2E2E2E2E2E2E2E2E2E2E2E2E2E2E2E2E2E2E2E2E2E2E2E2E2E2E2E2E2F5E2E2E2E2E2E2E2E2E2E2E2E2E2E2E2
310
E2E2E2E2E2E2E2E2E2E2E2E2F5F5E2E2E2E2E2E2E2E2E2E2E2E2E2E2E2E2E2E2E2E2E2E2E2E2E2E2E2F5E2E2E2E2E2E2E2E2E2E2E2E2E2E2E2E2E2E2E2E2E2E2E2E2E2E2E2E2E2E2E2E2E2E2E2E2E2E2E2E2E2E2E2E2E2E2E2E2E2E2E2E2E2E2E2E2E2E2E2E2E2E2E2E2E2E2E2E2E2E2E2E2E2E2E2E2E2E2E2E2E2E2E2E2E2
310
E2E2E2E2E2E2E2E2E2E2E2E2E2E2E2E2E2E2E2E2E2E2E2E2E2E2E2E2E2E2E2E2E2E2E2E2E2F5E2E2E2E2E2E2E2E2E2E2E2E2E2E2E2E2E2E2E2E2E2E2E2E2E2E2E2F5F5E2E2E2E2E2E2E2E2E2E2E2E2E2E2E2E2E2E2E2E2E2E2E2E2E2E2E2F5E2E2E2E2E2E2E2E2E2E2E2E2E2E2E2E2E2E2E2E2E2E2E2E2E2E2E2E2E2E2E2E2
310
E2E2E2E2E2E2E2E2E2E2E2E2E2E2E2E2E2E2E2E2E2E2E2E2E2E2E2E2E2E2E2E2E2E2E2E2E2E2E2E2E2E2E2E2E2E2E2E2E2E2E2E2E2E2E2E2E2E2E2E2E2E2E2E2E2E2E2E2E2E2E2E2E2E2E2E2E2E2E2E2E2E2E2E2E2E2E2E2E2E2F5E2E2E2E2E2E2E2E2E2E2E2E2E2E2E2E2E2E2E2E2E2E2E2E2E2E2E2F5F5E2E2E2E2E2E2E2
310
E2E2E2E2E2E2E2E2E2E2E2E2E2E2E2E2E2E2E2E2F5E2E2E2E2E2E2E2E2E2E2E2E2E2E2E2E2E2E2E2E2E2E2E2E2E2E2E2E2E2E2E2E2E2E2E2E2E2E2E2E2E2E2E2E2E2E2E2E2E2E2E2E2E2E2E2E2E2E2E2E2E2E2E2E2E2E2E2E2E2E2E2E2E2E2E2E2E2E2E2E2E2E2E2E2E2E2E2E2E2E2E2E2E2E2E2E2E2E2E2E2E2E2E2E2E2E2
310
E2E2E2E2E2E2E2E2E2E2E2E2E2E2E2E2F5E2E2E2E2E2E2E2E2E2E2E2E2E2E2E2E2E2E2E2E2E2E2E2E2E2E2E2F5F5E2E2E2E2E2E2E2E2E2E2E2F5E2E2E2E2E2E2E2E2E2E2E2E2E2E2E2F5E2E2E2E2E2E2E2E2E2E2E2E2E2E2E2E2E2E2E2E2E2E2E2E2E2E2E2E2E2E2E2E2E2E2E2E2E2E2E2E2E2E2E2E2E2E2E2E2E2E2E2E2E2
310
E2E2E2E2E2E2E2E2E2E2E2E2E2E2E2E2E2E2E2E2E2E2E2E2E2E2E2E2E2E2E2E2E2E2E2E2E2E2E2E2E2E2E2E2E2E2E2E2E2E2E2E2E2E2E2E2E2E2E2E2E2E2E2E2E2E2E2E2E2F5E2E2E2E2E2E2E2E2E2E2E2E2E2E2E2F5E2E2E2E2E2E2E2E2E2E2E2F5F5E2E2E2E2E2E2E2E2E2E2E2F5E2E2E2E2E2E2E2E2E2E2E2E2E2E2E2F5
310
E2E2E2E2E2E2E2E2E2E2E2E2E2E2E2E2E2E2E2E2E2E2E2E2E2E2E2E2E2E2E2E2E2E2E2E2E2E2E2E2E2E2E2E2E2E2E2E2E2E2E2E2E2E2E2E2E2E2E2E2E2E2E2E2E2E2E2E2E2E2E2E2E2E2E2E2E2E2E2E2E2E2E2E2E2E2E2E2E2E2E2E2E2E2E2E2E2E2E2E2E2E2E2E2E2E2E2E2E2E2E2E2E2E2E2E2E2E2E2E2E2E2F5E2E2E2E2
310
E2E2E2E2E2E2E2E2E2E2E2F5E2E2E2E2E2E2E2E2E2E2E2F5F5E2E2E2E2E2E2E2E2E2E2E2F5E2E2E2E2E2E2E2E2E2E2E2E2E2E2E2F5E2E2E2E2E2E2E2E2E2E2E2E2E2E2E2E2E2E2E2E2E2E2E2E2E2E2E2E2E2E2E2E2E2E2E2E2E2E2E2E2E2E2E2E2E2E2E2E2E2E2E2E2E2E2E2E2E2E2E2E2E2E2E2E2E2E2E2E2E2E2E2E2E2E2
310
E2E2E2E2E2E2E2E2E2E2E2E2E2E2E2E2E2E2E2E2E2E2E2E2E2E2E2E2E2E2E2E2E2E2E2E2E2E2E2E2E2E2E2E2E2E2E2E2F5E2E2E2E2E2E2E2E2E2E2E2E2E2E2E2F5E2E2E2E2E2E2E2E2E2E2E2F5F5E2E2E2E2E2E2E2E2E2E2E2F5E2E2E2E2E2E2E2E2E2E2E2E2E2E2E2F5E2E2E2E2E2E2E2E2E2E2E2E2E2E2E2E2E2E2E2E2E2
310
E2E2E2E2E2E2E2E2E2E2E2E2E2E2E2E2E2E2E2E2E2E2E2E2E2E2E2E2E2E2E2E2E2E2E2E2E2E2E2E2E2E2E2E2E2E2E2E2E2E2E2E2E2E2E2E2E2E2E2E2E2E2E2E2E2E2E2E2E2E2E2E2E2E2E2E2E2E2E2E2E2E2E2E2E2E2E2E2E2E2E2E2E2E2E2E2E2E2E2E2E2F5E2E2E2E2E2E2E2E2E2E2E2E2E2E2E2F5E2E2E2E2E2E2E2E2E2
310
E2E2F5F5E2E2E2E2E2E2E2E2E2E2E2F5E2E2E2E2E2E2E2E2E2E2E2E2E2E2E2F5E2E2E2E2E2E2E2E2E2E2E2E2E2E2E2E2E2E2E2E2E2E2E2E2E2E2E2E2E2E2E2E2E2E2E2E2E2E2E2E2E2E2E2E2E2E2E2E2E2E2E2E2E2E2E2E2E2E2E2E2E2E2E2E2E2E2E2E2E2E2E2E2E2E2E2E2E2E2E2E2E2E2E2E2E2E2E2E2E2E2E2E2E2E2E2
310
E2E2E2E2E2E2E2E2E2E2E2E2E2E2E2E2E2E2E2E2E2E2E2E2E2E2E2F5E2E2E2E2E2E2E2E2E2E2E2E2E2E2E2F5E2E2E2E2E2E2E2E2E2E2E2F5F5E2E2E2E2E2E2E2E2E2E2E2F5E2E2E2E2E2E2E2E2E2E2E2E2E2E2E2F5E2E2E2E2E2E2E2E2E2E2E2E2E2E2E2E2E2E2E2E2E2E2E2E2E2E2E2E2E2E2E2E2E2E2E2E2E2E2E2E2E2E2
310
E2E2E2E2E2E2E2E2E2E2E2E2E2E2E2E2E2E2E2E2E2E2E2E2E2E2E2E2E2E2E2E2E2E2E2E2E2E2E2E2E2E2E2E2E2E2E2E2E2E2E2E2E2E2E2E2E2E2E2E2E2E2E2E2E2E2E2E2E2E2E2E2E2E2E2E2E2E2E2E2F5E2E2E2E2E2E2E2E2E2E2E2E2E2E2E2F5E2E2E2E2E2E2E2E2E2E2E2F5F5E2E2E2E2E2E2E2E2E2E2E2F5E2E2E2E2E2
310
E2E2E2E2E2E2E2E2E2E2F5E2E2E2E2E2E2E2E2E2E2E2E2E2E2E2E2E2E2E2E2E2E2E2E2E2E2E2E2E2E2E2E2E2E2E2E2E2E2E2E2E2E2E2E2E2E2E2E2E2E2E2E2E2E2E2E2E2E2E2E2E2E2E2E2E2E2E2E2E2E2E2E2E2E2E2E2E2E2E2E2E2E2E2E2E2E2E2E2E2E2E2E2E2E2E2E2E2E2E2E2E2E2E2E2E2E2E2E2E2E2E2E2E2E2E2E2
310
E2E2E2E2E2E2F5E2E2E2E2E2E2E2E2E2E2E2E2E2E2E2F5E2E2E2E2E2E2E2E2E2E2E2F5F5E2E2E2E2E2E2E2E2E2E2E2F5E2E2E2E2E2E2E2E2E2E2E2E2E2E2E2F5E2E2E2E2E2E2E2E2E2E2E2E2E2E2E2E2E2E2E2E2E2E2E2E2E2E2E2E2E2E2E2E2E2E2E2E2E2E2E2E2E2E2E2E2E2E2E2E2E2E2E2E2E2E2E2E2E2E2E2E2E2E2E2
310
E2E2E2E2E2E2E2E2E2E2E2E2E2E2E2E2E2E2E2E2E2E2E2E2E2E2E2E2E2E2E2E2E2E2E2E2E2E2E2E2E2E2E2E2E2E2E2E2E2E2E2E2E2E2E2E2E2E2E2F5E2E2E2E2E2E2E2E2E2E2E2E2E2E2E2F5E2E2E2E2E2E2E2E2E2E2E2F5F5E2E2E2E2E2E2E2E2E2E2E2F5E2E2E2E2E2E2E2E2E2E2E2E2E2E2E2F5E2E2E2E2E2E2E2E2E2E2
310
E2E2E2E2E2E2E2E2E2E2E2E2E2E2E2E2E2E2E2E2E2E2E2E2E2E2E2E2E2E2E2E2E2E2E2E2E2E2E2E2E2E2E2E2E2E2E2E2E2E2E2E2E2E2E2E2E2E2E2E2E2E2E2E2E2E2E2E2E2E2E2E2E2E2E2E2E2E2E2E2E2E2E2E2E2E2E2E2E2E2E2E2E2E2E2E2E2E2E2E2E2E2E2E2E2E2E2E2E2E2E2E2F5E2E2E2E2E2E2E2E2E2E2E2E2E2E2
310
E2F5E2E2E2E2E2E2E2E2E2E2E2F5F5E2E2E2E2E2E2E2E2E2E2E2F5E2E2E2E2E2E2E2E2E2E2E2E2E2E2E2F5E2E2E2E2E2E2E2E2E2E2E2E2E2E2E2E2E2E2E2E2E2E2E2E2E2E2E2E2E2E2E2E2E2E2E2E2E2E2E2E2E2E2E2E2E2E2E2E2E2E2E2E2E2E2E2E2E2E2E2E2E2E2E2E2E2E2E2E2E2E2E2E2E2E2E2E2E2E2E2E2E2E2E2E2
310
E2E2E2E2E2E2E2E2E2E2E2E2E2E2E2E2E2E2E2E2E2E2E2E2E2E2E2E2E2E2E2E2E2E2E2E2E2E2F5E2E2E2E2E2E2E2E2E2E2E2E2E2E2E2F5E2E2E2E2E2E2E2E2E2E2E2F5F5E2E2E2E2E2E2E2E2E2E2E2F5E2E2E2E2E2E2E2E2E2E2E2E2E2E2E2F5E2E2E2E2E2E2E2E2E2E2E2E2E2E2E2E2E2E2E2E2E2E2E2E2E2E2E2E2E2E2E2
310
E2E2E2E2E2E2E2E2E2E2E2E2E2E2E2E2E2E2E2E2E2E2E2E2E2E2E2E2E2E2E2E2E2E2E2E2E2E2E2E2E2E2E2E2E2E2E2E2E2E2E2E2E2E2E2E2E2E2E2E2E2E2E2E2E2E2E2E2E2E2E2E2E2E2E2E2E2E2E2E2E2E2E2E2E2E2E2E2E2E2E2F5E2E2E2E2E2E2E2E2E2E2E2E2E2E2E2F5E2E2E2E2E2E2E2E2E2E2E2F5F5E2E2E2E2E2E2
310
E2E2E2E2E2F5E2E2E2E2E2E2E2E2E2E2E2E2E2E2E2F5E2E2E2E2E2E2E2E2E2E2E2E2E2E2E2E2E2E2E2E2E2E2E2E2E2E2E2E2E2E2E2E2E2E2E2E2E2E2E2E2E2E2E2E2E2E2E2E2E2E2E2E2E2E2E2E2E2E2E2E2E2E2E2E2E2E2E2E2E2E2E2E2E2E2E2E2E2E2E2E2E2E2E2E2E2E2E2E2E2E2E2E2E2E2E2E2E2E2E2E2E2E2E2E2E2
310
E2E2E2E2E2E2E2E2E2E2E2E2E2E2E2E2E2F5E2E2E2E2E2E2E2E2E2E2E2E2E2E2E2F5E2E2E2E2E2E2E2E2E2E2E2F5F5E2E2E2E2E2E2E2E2E2E2E2F5E2E2E2E2E2E2E2E2E2E2E2E2E2E2E2F5E2E2E2E2E2E2E2E2E2E2E2E2E2E2E2E2E2E2E2E2E2E2E2E2E2E2E2E2E2E2E2E2E2E2E2E2E2E2E2E2E2E2E2E2E2E2E2E2E2E2E2E2
310
E2E2E2E2E2E2E2E2E2E2E2E2E2E2E2E2E2E2E2E2E2E2E2E2E2E2E2E2E2E2E2E2E2E2E2E2E2E2E2E2E2E2E2E2E2E2E2E2E2E2E2E2E2E2E2E2E2E2E2E2E2E2E2E2E2E2E2E2E2E2F5E2E2E2E2E2E2E2E2E2E2E2E2E2E2E2F5E2E2E2E2E2E2E2E2E2E2E2F5F5E2E2E2E2E2E2E2E2E2E2E2F5E2E2E2E2E2E2E2E2E2E2E2E2E2E2E2
310
F5E2E2E2E2E2E2E2E2E2E2E2E2E2E2E2E2E2E2E2E2E2E2E2E2E2E2E2E2E2E2E2E2E2E2E2E2E2E2E2E2E2E2E2E2E2E2E2E2E2E2E2E2E2E2E2E2E2E2E2E2E2E2E2E2E2E2E2E2E2E2E2E2E2E2E2E2E2E2E2E2E2E2E2E2E2E2E2E2E2E2E2E2E2E2E2E2E2E2E2E2E2E2E2E2E2E2E2E2E2E2E2E2E2E2E2E2E2E2E2E2E2E2F5E2E2E2
310
E2E2E2E2E2E2E2E2E2E2E2E2F5E2E2E2E2E2E2E2E2E2E2E2F5F5E2E2E2E2E2E2E2E2E2E2E2F5E2E2E2E2E2E2E2E2E2E2E2E2E2E2E2F5E2E2E2E2E2E2E2E2E2E2E2E2E2E2E2E2E2E2E2E2E2E2E2E2E2E2E2E2E2E2E2E2E2E2E2E2E2E2E2E2E2E2E2E2E2E2E2E2E2E2E2E2E2E2E2E2E2E2E2E2E2E2E2E2E2E2E2E2E2E2E2E2E2
310
E2E2E2E2E2E2E2E2E2E2E2E2E2E2E2E2E2E2E2E2E2E2E2E2E2E2E2E2E2E2E2E2E2E2E2E2E2E2E2E2E2E2E2E2E2E2E2E2E2F5E2E2E2E2E2E2E2E2E2E2E2E2E2E2E2F5E2E2E2E2E2E2E2E2E2E2E2F5F5E2E2E2E2E2E2E2E2E2E2E2E2E2E2E2E2E2E2E2E2E2E2E2E2E2E2E2F5E2E2E2E2E2E2E2E2E2E2E2E2E2E2E2E2E2E2E2E2
310
E2E2E2E2E2E2E2E2E2E2E2E2E2E2E2E2E2E2E2E2E2E2E2E2E2E2E2E2E2E2E2E2E2E2E2E2E2E2E2E2E2E2E2E2E2E2E2E2E2E2E2E2E2E2E2E2E2E2E2E2E2E2E2E2E2E2E2E2E2E2E2E2E2E2E2E2E2E2E2E2E2E2E2E2E2E2E2E2E2E2E2E2E2E2E2E2E2E2E2E2E2E2F5E2E2E2E2E2E2E2E2E2E2E2E2E2E2E2E2E2E2E2E2E2E2E2E2
310
E2E2E2F5F5E2E2E2E2E2E2E2E2E2E2E2E2E2E2E2E2E2E2E2E2E2E2E2E2E2E2E2F5E2E2E2E2E2E2E2E2E2E2E2E2E2E2E2E2E2E2E2E2E2E2E2E2E2E2E2E2E2E2E2E2E2E2E2E2E2E2E2E2E2E2E2E2E2E2E2E2E2E2E2E2E2E2E2E2E2E2E2E2E2E2E2E2E2E2E2E2E2E2E2E2E2E2E2E2E2E2E2E2E2E2E2E2E2E2E2E2E2E2E2E2E2E2
310
E2E2E2E2E2E2E2E2E2E2E2E2E2E2E2E2E2E2E2E2E2E2E2E2E2E2E2E2F5E2E2E2E2E2E2E2E2E2E2E2E2E2E2E2E2E2E2E2E2E2E2E2E2E2E2E2F5F5E2E2E2E2E2E2E2E2E2E2E2E2E2E2E2E2E2E2E2E2E2E2E2E2E2E2E2F5E2E2E2E2E2E2E2E2E2E2E2E2E2E2E2E2E2E2E2E2E2E2E2E2E2E2E2E2E2E2E2E2E2E2E2E2E2E2E2E2E2
310
E2E2E2E2E2E2E2E2E2E2E2E2E2E2E2E2E2E2E2E2E2E2E2E2E2E2E2E2E2E2E2E2E2E2E2E2E2E2E2E2E2E2E2E2E2E2E2E2E2E2E2E2E2E2E2E2E2E2E2E2E2E2E2E2E2E2E2E2E2E2E2E2E2E2E2E2E2E2E2E2E2F5E2E2E2E2E2E2E2E2E2E2E2E2E2E2E2E2E2E2E2E2E2E2E2E2E2E2E2F5F5E2E2E2E2E2E2E2E2E2E2E2E2E2E2E2E2
310
E2E2E2E2E2E2E2E2E2E2E2F5F5F5F5F5F5F5F5F5F5F5F5F5F5F5F5F5F5F5F5F5F5F5F5F5F5F5F5F5F5F5F5F5F5F5F5F5F5F5F5F5F5F5F5F5F5F5F5F5F5F5F5F5F5F5F5F5F5F5F5F5F5F5F5F5F5F5F5F5F5F5F5F5F5F5F5F5F5F5F5F5F5F5F5F5F5F5F5F5F5F5F5F5F5F5F5F5F5F5F5F5F5F5F5F5F5F5F5F5F5F5F5F5F5F5F5
310
F5F5F5F5F5F5F5F5E2E2E2E2E2E2E2E2E2E2E2E2E2E2E2E2E2E2E2E2E2E2E2E2E2E2E2F5F5E2E2E2E2E2E2E2E2E2E2E2E2E2E2E2E2E2E2E2E2E2E2E2E2E2E2E2E2E2E2E2E2E2E2E2E2E2E2E2E2E2E2E2E2E2E2E2E2E2E2E2E2E2E2E2E2E2E2E2E2E2E2E2E2E2E2E2E2E2E2E2E2E2E2E2E2E2E2E2E2E2E2E2E2E2E2E2E2E2E2
310
E2E2E2E2E2E2E2E2E2E2E2E2E2E2E2E2E2E2E2E2E2E2E2E2E2E2E2E2E2E2E2E2E2E2E2E2E2E2E2E2E2E2E2E2E2E2E2E2E2E2E2E2E2E2E2E2E2E2E2E2E2E2E2E2E2E2E2E2E2E2E2E2E2E2E2E2E2E2E2E2E2E2E2E2E2E2E2E2F5F5E2E2E2E2E2E2E2E2E2E2E2E2E2E2E2E2E2E2E2E2E2E2E2E2E2E2E2E2E2E2E2E2E2E2E2E2E2
310
E2E2E2E2E2E2E2E2E2E2E2E2E2E2E2E2E2E2E2E2E2E2E2E2E2E2E2E2E2E2E2E2E2E2E2E2E2E2E2E2E2E2E2E2E2E2E2E2E2E2E2E2E2E2E2E2E2E2E2E2E2E2E2E2E2E2E2E2E2E2E2E2E2E2E2E2E2E2E2E2E2E2E2E2E2E2E2E2E2E2E2E2E2E2E2E2E2E2E2E2E2E2E2E2E2E2E2E2E2E2E2E2E2E2E2E2E2E2E2E2E2E2E2E2E2E2E2
310
E2E2E2E2E2E2E2E2E2E2E2E2E2E2F5F5E2E2E2E2E2E2E2E2E2E2E2E2E2E2E2E2E2E2E2E2E2E2E2E2E2E2E2E2E2E2E2E2E2E2E2E2E2E2E2E2E2E2E2E2E2E2E2E2E2E2E2E2E2E2E2E2E2E2E2E2E2E2E2E2E2E2E2E2E2E2E2E2E2E2E2E2E2E2E2E2E2E2E2E2E2E2E2E2E2E2E2E2E2E2E2E2E2E2E2E2E2E2E2E2E2E2E2E2E2E2E2
310
E2E2E2E2E2E2E2E2E2E2E2E2E2E2E2E2E2E2E2E2E2E2E2E2E2E2E2E2E2E2E2E2E2E2E2E2E2E2E2E2E2E2E2E2E2E2E2E2E2E2E2E2E2E2E2E2E2E2E2E2E2E2E2E2E2E2E2F5F5E2E2E2E2E2E2E2E2E2E2E2E2E2E2E2E2E2E2E2E2E2E2E2E2E2E2E2E2E2E2E2E2E2E2E2E2E2E2E2E2E2E2E2E2E2E2E2E2E2E2E2E2E2E2E2E2E2E2
310
E2E2E2E2E2E2E2E2E2E2E2E2E2E2E2E2E2E2E2E2E2E2E2E2E2E2E2E2E2E2E2E2E2E2E2E2E2E2E2E2E2E2E2E2E2E2E2E2E2E2E2E2E2E2E2E2E2E2E2E2E2E2E2E2E2E2E2E2E2E2E2E2E2E2E2E2E2E2E2E2E2E2E2E2E2E2E2E2E2E2E2E2E2E2E2E2E2E2E2E2E2E2E2E2E2E2E2E2E2E2E2E2E2E2E2E2E2E2E2E2F5F5E2E2E2E2E2
310
E2E2E2E2E2E2F5E2E2E2E2E2E2E2E2E2E2E2E2E2E2E2E2E2E2E2E2E2E2E2E2E2E2E2E2E2E2E2E2E2E2E2E2E2E2E2E2E2E2E2E2E2E2E2E2E2E2E2E2E2E2E2E2E2E2E2E2E2E2E2E2E2E2E2E2E2E2E2E2E2E2E2E2E2E2E2E2E2E2E2E2E2E2E2E2E2E2E2E2E2E2E2E2E2E2E2E2E2E2E2E2E2E2E2E2E2E2E2E2E2E2E2E2E2E2E2E2
310
E2E2E2E2E2E2E2E2E2E2E2E2E2E2E2E2E2E2E2E2E2E2E2E2E2E2E2E2E2E2E2E2E2E2F5E2E2E2E2E2E2E2E2E2E2E2F5F5E2E2E2E2E2E2E2E2E2E2E2F5E2E2E2E2E2E2E2E2E2E2E2E2E2E2E2E2E2E2E2E2E2E2E2E2E2E2E2E2E2E2E2E2E2E2E2E2E2E2E2E2E2E2E2E2E2E2E2E2E2E2E2E2E2E2E2E2E2E2E2E2E2E2E2E2E2E2E2
310
E2E2E2E2E2E2E2E2E2E2E2E2E2E2E2E2E2E2E2E2E2E2E2E2E2E2E2E2E2E2E2E2E2E2E2E2E2E2E2E2E2E2E2E2E2E2E2E2E2E2E2E2E2E2E2E2E2E2E2E2E2E2E2E2E2E2E2E2E2E2E2E2E2E2E2E2E2E2E2E2E2E2E2E2E2E2E2F5E2E2E2E2E2E2E2E2E2E2E2F5F5E2E2E2E2E2E2E2E2E2E2E2F5E2E2E2E2E2E2E2E2E2E2E2E2E2E2
310
E2E2E2E2E2E2E2E2E2E2E2E2E2E2E2E2E2E2E2E2E2E2E2E2E2E2E2E2E2E2E2E2E2E2E2E2E2E2E2E2E2E2E2E2E2E2E2E2E2E2E2E2E2E2E2E2E2E2E2E2E2E2E2E2E2E2E2E2E2E2E2E2E2E2E2E2E2E2E2E2E2E2E2E2E2E2E2E2E2E2E2E2E2E2E2E2E2E2E2E2E2E2E2E2E2E2E2E2E2E2E2E2E2E2E2E2E2E2E2E2E2E2E2E2E2E2E2
310
E2E2E2E2E2E2E2E2E2E2E2E2E2F5E2E2E2E2E2E2E2E2E2E2E2F5F5E2E2E2E2E2E2E2E2E2E2E2F5E2E2E2E2E2E2E2E2E2E2E2E2E2E2E2E2E2E2E2E2E2E2E2E2E2E2E2E2E2E2E2E2E2E2E2E2E2E2E2E2E2E2E2E2E2E2E2E2E2E2E2E2E2E2E2E2E2E2E2E2E2E2E2E2E2E2E2E2E2E2E2E2E2E2E2E2E2E2E2E2E2E2E2E2E2E2E2E2
310
E2E2E2E2E2E2E2E2E2E2E2E2E2E2E2E2E2E2E2E2E2E2E2E2E2E2E2E2E2E2E2E2E2E2E2E2E2E2E2E2E2E2E2E2E2E2E2E2E2E2E2E2E2E2E2E2E2E2E2E2E2E2E2E2E2E2F5E2E2E2E2E2E2E2E2E2E2E2F5F5E2E2E2E2E2E2E2E2E2E2E2F5E2E2E2E2E2E2E2E2E2E2E2E2E2E2E2E2E2E2E2E2E2E2E2E2E2E2E2E2E2E2E2E2E2E2E2
310
E2E2E2E2E2E2E2E2E2E2E2E2E2E2E2E2E2E2E2E2E2E2E2E2E2E2E2E2E2E2E2E2E2E2E2E2E2E2E2E2E2E2E2E2E2E2E2E2E2E2E2E2E2E2E2E2E2E2E2E2E2E2E2E2E2E2E2E2E2E2E2E2E2E2E2E2E2E2E2E2E2E2E2E2E2E2E2E2E2E2E2E2E2E2E2E2E2E2E2E2E2E2E2E2E2E2E2E2E2E2E2E2E2E2E2E2E2E2E2F5E2E2E2E2E2E2E2
310
E2E2E2E2F5F5E2E2E2E2E2E2E2E2E2E2E2F5E2E2E2E2E2E2E2E2E2E2E2E2E2E2E2E2E2E2E2E2E2E2E2E2E2E2E2E2E2E2E2E2E2E2E2E2E2E2E2E2E2E2E2E2E2E2E2E2E2E2E2E2E2E2E2E2E2E2E2E2E2E2E2E2E2E2E2E2E2E2E2E2E2E2E2E2E2E2E2E2E2E2E2E2E2E2E2E2E2E2E2E2E2E2E2E2E2E2E2E2E2E2E2E2E2E2E2E2E2
310
E2E2E2E2E2E2E2E2E2E2E2E2E2E2E2E2E2E2E2E2E2E2E2E2E2E2E2E2E2E2E2E2E2E2E2E2E2E2E2E2E2E2E2E2E2F5E2E2E2E2E2E2E2E2E2E2E2F5F5E2E2E2E2E2E2E2E2E2E2E2F5E2E2E2E2E2E2E2E2E2E2E2E2E2E2E2E2E2E2E2E2E2E2E2E2E2E2E2E2E2E2E2E2E2E2E2E2E2E2E2E2E2E2E2E2E2E2E2E2E2E2E2E2E2E2E2E2
310
E2E2E2E2E2E2E2E2E2E2E2E2E2E2E2E2E2E2E2E2E2E2E2E2E2E2E2E2E2E2E2E2E2E2E2E2E2E2E2E2E2E2E2E2E2E2E2E2E2E2E2E2E2E2E2E2E2E2E2E2E2E2E2E2E2E2E2E2E2E2E2E2E2E2E2E2E2E2E2E2E2E2E2E2E2E2E2E2E2E2E2E2E2E2E2E2E2E2F5E2E2E2E2E2E2E2E2E2E2E2F5F5E2E2E2E2E2E2E2E2E2E2E2F5F5F5F5
310
F5F5F5F5F5E2E2E2E2E2E2E2E2E2F5F5F5F5F5F5F5F5F5F5F5F5F5F5F5F5F5E2E2E2E2E2E2E2E2E2F5F5F5F5F5F5F5F5F5F5F5F5F5F5F5F5E2E2E2E2E2E2E2E2E2E2F5F5F5F5F5F5F5F5F5F5F5F5F5F5F5F5E2E2E2E2E2E2E2E2E2E2F5F5F5F5F5F5F5F5F5F5F5F5F5F5F5F5E2E2E2E2E2E2E2E2E2F5F5F5F5F5F5F5F5F5F5
310
F5F5F5F5F5F5F5E2E2E2E2E2E2E2E2E2F5F5F5F5F5F5F5F5F5E2E2E2E2E2E2E2E2E2E2E2F5F5E2E2E2E2E2E2E2E2E2E2E2E2E2E2E2E2E2E2E2E2E2E2E2E2E2E2E2E2E2E2E2E2E2E2E2E2E2E2E2E2E2E2E2E2E2E2E2E2E2E2E2E2E2E2E2E2E2E2E2E2E2E2E2E2E2E2E2E2E2E2E2E2E2E2E2E2E2E2E2E2E2E2E2E2E2E2E2E2E2
310
E2E2E2E2E2E2E2E2E2E2E2E2E2E2E2E2E2E2E2E2E2E2E2E2E2E2E2E2E2E2E2E2E2E2E2E2E2E2E2E2E2E2E2E2E2E2E2E2E2E2E2E2E2E2E2E2E2E2E2E2E2E2E2E2E2E2E2E2E2E2E2E2E2E2E2E2E2E2E2E2E2E2E2E2E2E2E2E2E2F5F5E2E2E2E2E2E2E2E2E2E2E2E2E2E2E2E2E2E2E2E2E2E2E2E2E2E2E2E2E2E2E2E2E2E2E2E2
310
E2E2E2E2E2E2E2E2E2E2E2E2E2E2E2E2E2E2E2E2E2E2E2E2E2E2E2E2E2E2E2E2E2E2E2E2E2E2E2E2E2E2E2E2E2E2E2E2E2E2E2E2E2E2E2E2E2E2E2E2E2E2E2E2E2E2E2E2E2E2E2E2E2E2E2E2E2E2E2E2E2E2E2E2E2E2E2E2E2E2E2E2E2E2E2E2E2E2E2E2E2E2E2E2E2E2E2E2E2E2E2E2E2E2E2E2E2E2E2E2E2E2E2E2E2E2E2
310
E2E2E2E2E2E2E2E2E2E2E2E2E2E2E2F5F5E2E2E2E2E2E2E2E2E2E2E2E2E2E2E2E2E2E2E2E2E2E2E2E2E2E2E2E2E2E2E2E2E2E2E2E2E2E2E2E2E2E2E2E2E2E2E2E2E2E2E2E2E2E2E2E2E2E2E2E2E2E2E2E2E2E2E2E2E2E2E2E2E2E2E2E2E2E2E2E2E2E2E2E2E2E2E2E2E2E2E2E2E2E2E2E2E2E2E2E2E2E2E2E2E2E2E2E2E2E2
310
E2E2E2E2E2E2E2E2E2E2E2E2E2E2E2E2E2E2E2E2E2E2E2E2E2E2E2E2E2E2E2E2E2E2E2E2E2E2E2E2E2E2E2E2E2E2E2E2E2E2E2E2E2E2E2E2E2E2E2E2E2E2E2E2E2E2E2E2F5F5F5F5F5F5F5F5F5F5F5F5F5F5F5F5F5F5F5F5F5F5F5F5F5F5F5F5F5F5F5F5F5F5F5F5F5F5F5F5F5F5F5F5F5F5F5F5F5F5F5F5F5F5F5F5F5F5F5
310
F5F5F5F5F5F5F5F5F5F5F5F5F5F5F5F5F5F5F5F5F5F5F5F5F5F5F5F5F5F5F5F5F5F5F5F5F5F5F5F5F5F5F5F5F5F5F5F5F5F5F5F5F5F5F5F5F5F5F5F5F5F5F5F5F5F5F5F5F5F5F5F5F5F5F5F5F5F5F5F5F5F5F5F5F5F5F5F5F5F5F5F5F5F5F5F5F5F5F5F5F5F5F5F5F5F5F5F5F5F5F5F5F5F5F5F5F5F5F5F5F5F5EFEFEFEFEF
310
EFEFEFEFEFEFEFEFEFEFEFEFEFEFEFEFEFEFEFEFEFEFEFEFEFEFEFEFEFEFEFEFEFEFEFEFEFEFEFEFEFEFEFEFEFEFEFEFEFEFEFEFEFEFEFEFEFEFEFEFEFEFEFEFEFEFEFEFEFEFEFEFEFEFEFEFEFEFEFEFEFEFEFEFEFEFEFEFEFEFEFEFEFEFEFEFEFEFEFEFEFEFEFEFEFEFEFEFEFEFEFEFEFEFEFEFEFEFEFEFEFEFEFEFEFEFEF
310
EFEFEFEFEFEFEFEFEFEFEFEFEFEFEFEFEFEFEFEFEFEFEFEFEFEFEFEFEFEFEFEFEFEFEFEFEFEFEFEFEFEFEFEFEFEFEFEF
  0
ENDSEC
  0
EOF
