  0
SECTION
  2
HEADER
  9
$ACADVER
  1
AC1021
  9
$ACADMAINTVER
 70
     1
  9
$DWGCODEPAGE
  3
ANSI_1252
  9
$LASTSAVEDBY
  1
BJB
  9
$INSBASE
 10
-315.9610590336579
 20
-22118.54067033187
 30
0.0
  9
$EXTMIN
 10
-2616.088376944373
 20
-24019.3270897233
 30
-0.0000000000000058
  9
$EXTMAX
 10
-72.58029481402991
 20
-22117.81689846228
 30
0.0000000000000104
  9
$LIMMIN
 10
0.0
 20
0.0
  9
$LIMMAX
 10
420.0
 20
297.0
  9
$ORTHOMODE
 70
     1
  9
$REGENMODE
 70
     1
  9
$FILLMODE
 70
     1
  9
$QTEXTMODE
 70
     0
  9
$MIRRTEXT
 70
     0
  9
$LTSCALE
 40
100.0
  9
$ATTMODE
 70
     1
  9
$TEXTSIZE
 40
536.1425458167722
  9
$TRACEWID
 40
1.0
  9
$TEXTSTYLE
  7
Standard
  9
$CLAYER
  8
Access .3
  9
$CELTYPE
  6
ByLayer
  9
$CECOLOR
 62
   256
  9
$CELTSCALE
 40
1.0
  9
$DISPSILH
 70
     0
  9
$DIMSCALE
 40
10.0
  9
$DIMASZ
 40
2.5
  9
$DIMEXO
 40
1.0
  9
$DIMDLI
 40
1.0
  9
$DIMRND
 40
0.0
  9
$DIMDLE
 40
2.0
  9
$DIMEXE
 40
2.0
  9
$DIMTP
 40
0.0
  9
$DIMTM
 40
0.0
  9
$DIMTXT
 40
1.8
  9
$DIMCEN
 40
2.5
  9
$DIMTSZ
 40
0.0
  9
$DIMTOL
 70
     0
  9
$DIMLIM
 70
     0
  9
$DIMTIH
 70
     0
  9
$DIMTOH
 70
     0
  9
$DIMSE1
 70
     0
  9
$DIMSE2
 70
     0
  9
$DIMTAD
 70
     1
  9
$DIMZIN
 70
     9
  9
$DIMBLK
  1

  9
$DIMASO
 70
     1
  9
$DIMSHO
 70
     1
  9
$DIMPOST
  1

  9
$DIMAPOST
  1

  9
$DIMALT
 70
     0
  9
$DIMALTD
 70
     4
  9
$DIMALTF
 40
0.0394
  9
$DIMLFAC
 40
1.0
  9
$DIMTOFL
 70
     0
  9
$DIMTVP
 40
0.0
  9
$DIMTIX
 70
     0
  9
$DIMSOXD
 70
     0
  9
$DIMSAH
 70
     1
  9
$DIMBLK1
  1
ARCHTICK
  9
$DIMBLK2
  1
ARCHTICK
  9
$DIMSTYLE
  2
Access
  9
$DIMCLRD
 70
   256
  9
$DIMCLRE
 70
   256
  9
$DIMCLRT
 70
   256
  9
$DIMTFAC
 40
1.0
  9
$DIMGAP
 40
0.9
  9
$DIMJUST
 70
     0
  9
$DIMSD1
 70
     0
  9
$DIMSD2
 70
     0
  9
$DIMTOLJ
 70
     1
  9
$DIMTZIN
 70
     0
  9
$DIMALTZ
 70
     0
  9
$DIMALTTZ
 70
     0
  9
$DIMUPT
 70
     0
  9
$DIMDEC
 70
     0
  9
$DIMTDEC
 70
     0
  9
$DIMALTU
 70
     8
  9
$DIMALTTD
 70
     4
  9
$DIMTXSTY
  7
Standard
  9
$DIMAUNIT
 70
     0
  9
$DIMADEC
 70
     0
  9
$DIMALTRND
 40
0.0
  9
$DIMAZIN
 70
     0
  9
$DIMDSEP
 70
    46
  9
$DIMATFIT
 70
     3
  9
$DIMFRAC
 70
     0
  9
$DIMLDRBLK
  1

  9
$DIMLUNIT
 70
     2
  9
$DIMLWD
 70
    -2
  9
$DIMLWE
 70
    -2
  9
$DIMTMOVE
 70
     2
  9
$DIMFXL
 40
2.0
  9
$DIMFXLON
 70
     0
  9
$DIMJOGANG
 40
1.570796326794896
  9
$DIMTFILL
 70
     0
  9
$DIMTFILLCLR
 70
     0
  9
$DIMARCSYM
 70
     0
  9
$DIMLTYPE
  6

  9
$DIMLTEX1
  6

  9
$DIMLTEX2
  6

  9
$LUNITS
 70
     2
  9
$LUPREC
 70
     4
  9
$SKETCHINC
 40
1.0
  9
$FILLETRAD
 40
0.0
  9
$AUNITS
 70
     0
  9
$AUPREC
 70
     0
  9
$MENU
  1
.
  9
$ELEVATION
 40
0.0
  9
$PELEVATION
 40
0.0
  9
$THICKNESS
 40
0.0
  9
$LIMCHECK
 70
     0
  9
$CHAMFERA
 40
0.0
  9
$CHAMFERB
 40
0.0
  9
$CHAMFERC
 40
0.0
  9
$CHAMFERD
 40
0.0
  9
$SKPOLY
 70
     0
  9
$TDCREATE
 40
2453960.715830440
  9
$TDUCREATE
 40
2453960.299163773
  9
$TDUPDATE
 40
2455343.869464236
  9
$TDUUPDATE
 40
2455343.452797569
  9
$TDINDWG
 40
0.5894396181
  9
$TDUSRTIMER
 40
0.5894396181
  9
$USRTIMER
 70
     1
  9
$ANGBASE
 50
0.0
  9
$ANGDIR
 70
     0
  9
$PDMODE
 70
     0
  9
$PDSIZE
 40
0.0
  9
$PLINEWID
 40
0.0
  9
$SPLFRAME
 70
     0
  9
$SPLINETYPE
 70
     6
  9
$SPLINESEGS
 70
     8
  9
$HANDSEED
  5
1D1
  9
$SURFTAB1
 70
     6
  9
$SURFTAB2
 70
     6
  9
$SURFTYPE
 70
     6
  9
$SURFU
 70
     6
  9
$SURFV
 70
     6
  9
$UCSBASE
  2

  9
$UCSNAME
  2

  9
$UCSORG
 10
0.0
 20
0.0
 30
0.0
  9
$UCSXDIR
 10
1.0
 20
0.0
 30
0.0
  9
$UCSYDIR
 10
0.0
 20
1.0
 30
0.0
  9
$UCSORTHOREF
  2

  9
$UCSORTHOVIEW
 70
     0
  9
$UCSORGTOP
 10
0.0
 20
0.0
 30
0.0
  9
$UCSORGBOTTOM
 10
0.0
 20
0.0
 30
0.0
  9
$UCSORGLEFT
 10
0.0
 20
0.0
 30
0.0
  9
$UCSORGRIGHT
 10
0.0
 20
0.0
 30
0.0
  9
$UCSORGFRONT
 10
0.0
 20
0.0
 30
0.0
  9
$UCSORGBACK
 10
0.0
 20
0.0
 30
0.0
  9
$PUCSBASE
  2

  9
$PUCSNAME
  2

  9
$PUCSORG
 10
0.0
 20
0.0
 30
0.0
  9
$PUCSXDIR
 10
1.0
 20
0.0
 30
0.0
  9
$PUCSYDIR
 10
0.0
 20
1.0
 30
0.0
  9
$PUCSORTHOREF
  2

  9
$PUCSORTHOVIEW
 70
     0
  9
$PUCSORGTOP
 10
0.0
 20
0.0
 30
0.0
  9
$PUCSORGBOTTOM
 10
0.0
 20
0.0
 30
0.0
  9
$PUCSORGLEFT
 10
0.0
 20
0.0
 30
0.0
  9
$PUCSORGRIGHT
 10
0.0
 20
0.0
 30
0.0
  9
$PUCSORGFRONT
 10
0.0
 20
0.0
 30
0.0
  9
$PUCSORGBACK
 10
0.0
 20
0.0
 30
0.0
  9
$USERI1
 70
     0
  9
$USERI2
 70
     0
  9
$USERI3
 70
     0
  9
$USERI4
 70
     0
  9
$USERI5
 70
     0
  9
$USERR1
 40
0.0
  9
$USERR2
 40
0.0
  9
$USERR3
 40
0.0
  9
$USERR4
 40
0.0
  9
$USERR5
 40
0.0
  9
$WORLDVIEW
 70
     1
  9
$SHADEDGE
 70
     3
  9
$SHADEDIF
 70
    70
  9
$TILEMODE
 70
     1
  9
$MAXACTVP
 70
    64
  9
$PINSBASE
 10
0.0
 20
0.0
 30
0.0
  9
$PLIMCHECK
 70
     0
  9
$PEXTMIN
 10
25.69999999999999
 20
19.5
 30
0.0
  9
$PEXTMAX
 10
231.3
 20
175.5
 30
0.0
  9
$PLIMMIN
 10
-20.0
 20
-7.5
  9
$PLIMMAX
 10
277.0
 20
202.5
  9
$UNITMODE
 70
     0
  9
$VISRETAIN
 70
     1
  9
$PLINEGEN
 70
     0
  9
$PSLTSCALE
 70
     1
  9
$TREEDEPTH
 70
  3020
  9
$CMLSTYLE
  2
Standard
  9
$CMLJUST
 70
     0
  9
$CMLSCALE
 40
20.0
  9
$PROXYGRAPHICS
 70
     1
  9
$MEASUREMENT
 70
     1
  9
$CELWEIGHT
370
    -1
  9
$ENDCAPS
280
     0
  9
$JOINSTYLE
280
     0
  9
$LWDISPLAY
290
     0
  9
$INSUNITS
 70
     4
  9
$HYPERLINKBASE
  1

  9
$STYLESHEET
  1
LCG Normal.ctb
  9
$XEDIT
290
     1
  9
$CEPSNTYPE
380
     0
  9
$PSTYLEMODE
290
     1
  9
$FINGERPRINTGUID
  2
{D116375C-4D1B-41A7-B79C-F2C6715AA99E}
  9
$VERSIONGUID
  2
{8D96532A-A8FB-43AD-8512-2081B789BD9C}
  9
$EXTNAMES
290
     1
  9
$PSVPSCALE
 40
0.0
  9
$OLESTARTUP
290
     0
  9
$SORTENTS
280
   127
  9
$INDEXCTL
280
     0
  9
$HIDETEXT
280
     1
  9
$XCLIPFRAME
290
     0
  9
$HALOGAP
280
     0
  9
$OBSCOLOR
 70
   257
  9
$OBSLTYPE
280
     0
  9
$INTERSECTIONDISPLAY
280
     0
  9
$INTERSECTIONCOLOR
 70
   257
  9
$DIMASSOC
280
     2
  9
$PROJECTNAME
  1

  9
$CAMERADISPLAY
290
     0
  9
$LENSLENGTH
 40
50.0
  9
$CAMERAHEIGHT
 40
0.0
  9
$STEPSPERSEC
 40
2.0
  9
$STEPSIZE
 40
6.0
  9
$3DDWFPREC
 40
2.0
  9
$PSOLWIDTH
 40
0.25
  9
$PSOLHEIGHT
 40
4.0
  9
$LOFTANG1
 40
1.570796326794896
  9
$LOFTANG2
 40
1.570796326794896
  9
$LOFTMAG1
 40
0.0
  9
$LOFTMAG2
 40
0.0
  9
$LOFTPARAM
 70
     7
  9
$LOFTNORMALS
280
     1
  9
$LATITUDE
 40
37.795
  9
$LONGITUDE
 40
-122.394
  9
$NORTHDIRECTION
 40
0.0
  9
$TIMEZONE
 70
 -8000
  9
$LIGHTGLYPHDISPLAY
280
     1
  9
$TILEMODELIGHTSYNCH
280
     1
  9
$CMATERIAL
347
39
  9
$SOLIDHIST
280
     1
  9
$SHOWHIST
280
     1
  9
$DWFFRAME
280
     2
  9
$DGNFRAME
280
     0
  9
$REALWORLDSCALE
290
     1
  9
$INTERFERECOLOR
 62
     1
  9
$INTERFEREOBJVS
345
41
  9
$INTERFEREVPVS
346
42
  9
$CSHADOW
280
     0
  9
$SHADOWPLANELOCATION
 40
0.0
  0
ENDSEC
  0
SECTION
  2
CLASSES
  0
CLASS
  1
ACDBDICTIONARYWDFLT
  2
AcDbDictionaryWithDefault
  3
ObjectDBX Classes
 90
        0
 91
        1
280
     0
281
     0
  0
CLASS
  1
DICTIONARYVAR
  2
AcDbDictionaryVar
  3
ObjectDBX Classes
 90
        0
 91
        1
280
     0
281
     0
  0
CLASS
  1
TABLESTYLE
  2
AcDbTableStyle
  3
ObjectDBX Classes
 90
     4095
 91
        1
280
     0
281
     0
  0
CLASS
  1
PLOTSETTINGS
  2
AcDbPlotSettings
  3
ObjectDBX Classes
 90
        0
 91
        0
280
     0
281
     0
  0
CLASS
  1
SORTENTSTABLE
  2
AcDbSortentsTable
  3
ObjectDBX Classes
 90
        0
 91
        1
280
     0
281
     0
  0
CLASS
  1
DIMASSOC
  2
AcDbDimAssoc
  3
"AcDbDimAssoc|Product Desc:     AcDim ARX App For Dimension|Company:          Autodesk, Inc.|WEB Address:      www.autodesk.com"
 90
        0
 91
        0
280
     0
281
     0
  0
CLASS
  1
SPATIAL_FILTER
  2
AcDbSpatialFilter
  3
ObjectDBX Classes
 90
        0
 91
        0
280
     0
281
     0
  0
CLASS
  1
MATERIAL
  2
AcDbMaterial
  3
ObjectDBX Classes
 90
     1024
 91
        3
280
     0
281
     0
  0
CLASS
  1
VISUALSTYLE
  2
AcDbVisualStyle
  3
ObjectDBX Classes
 90
     4095
 91
       16
280
     0
281
     0
  0
CLASS
  1
SOLID_BACKGROUND
  2
AcDbSolidBackground
  3
SCENEOE
 90
     4095
 91
        0
280
     0
281
     0
  0
CLASS
  1
NPOCOLLECTION
  2
AcDbImpNonPersistentObjectsCollection
  3
ObjectDBX Classes
 90
     1153
 91
        0
280
     0
281
     0
  0
ENDSEC
  0
SECTION
  2
TABLES
  0
TABLE
  2
VPORT
  5
25
102
{ACAD_XDICTIONARY
360
29
102
}
330
0
100
AcDbSymbolTable
 70
     1
  0
VPORT
  5
26
330
25
100
AcDbSymbolTableRecord
100
AcDbViewportTableRecord
  2
*Active
 70
     0
 10
0.0
 20
0.0
 11
1.0
 21
1.0
 12
-1344.334335879201
 22
-23068.57199409279
 13
0.0
 23
0.0
 14
10.0
 24
10.0
 15
10.0
 25
10.0
 16
0.0
 26
0.0
 36
1.0
 17
0.0
 27
0.0
 37
0.0
 40
1925.082631648555
 41
2.494824016563146
 42
50.0
 43
0.0
 44
0.0
 50
0.0
 51
0.0
 71
     0
 72
  1000
 73
     1
 74
     3
 75
     0
 76
     0
 77
     0
 78
     0
281
     0
 65
     1
110
0.0
120
0.0
130
0.0
111
1.0
121
0.0
131
0.0
112
0.0
122
1.0
132
0.0
 79
     0
146
0.0
348
27
 60
     3
 61
     5
292
     1
282
     1
141
0.0
142
0.0
 63
   250
421
  3355443
  0
ENDTAB
  0
TABLE
  2
LTYPE
  5
20
330
0
100
AcDbSymbolTable
 70
     4
  0
LTYPE
  5
21
330
20
100
AcDbSymbolTableRecord
100
AcDbLinetypeTableRecord
  2
ByBlock
 70
     0
  3

 72
    65
 73
     0
 40
0.0
  0
LTYPE
  5
22
330
20
100
AcDbSymbolTableRecord
100
AcDbLinetypeTableRecord
  2
ByLayer
 70
     0
  3

 72
    65
 73
     0
 40
0.0
  0
LTYPE
  5
C
330
20
100
AcDbSymbolTableRecord
100
AcDbLinetypeTableRecord
  2
Continuous
 70
     0
  3
Solid line
 72
    65
 73
     0
 40
0.0
  0
LTYPE
  5
45
330
20
100
AcDbSymbolTableRecord
100
AcDbLinetypeTableRecord
  2
CENTER
 70
     0
  3
Center ____ _ ____ _ ____ _ ____ _ ____ _ ____
 72
    65
 73
     4
 40
2.0
 49
1.25
 74
     0
 49
-0.25
 74
     0
 49
0.25
 74
     0
 49
-0.25
 74
     0
  0
LTYPE
  5
48
330
20
100
AcDbSymbolTableRecord
100
AcDbLinetypeTableRecord
  2
DASHED
 70
     0
  3
Dashed __ __ __ __ __ __ __ __ __ __ __ __ __ _
 72
    65
 73
     2
 40
0.75
 49
0.5
 74
     0
 49
-0.25
 74
     0
  0
LTYPE
  5
BD
330
20
100
AcDbSymbolTableRecord
100
AcDbLinetypeTableRecord
  2
DASHSPACE
 70
     0
  3
__    __    __    __    __   
 72
    65
 73
     2
 40
30.0
 49
12.0
 74
     4
 75
     0
340
0
 46
1.0
 50
0.0
 44
0.0
 45
0.0
 49
-18.0
 74
     4
 75
     0
340
0
 46
1.0
 50
0.0
 44
0.0
 45
0.0
  0
ENDTAB
  0
TABLE
  2
LAYER
  5
17
102
{ACAD_XDICTIONARY
360
18
102
}
330
0
100
AcDbSymbolTable
 70
     6
  0
LAYER
  5
6
330
17
100
AcDbSymbolTableRecord
100
AcDbLayerTableRecord
  2
0
 70
     0
 62
     7
  6
Continuous
370
    -3
390
7
347
A
  0
LAYER
  5
BC
330
17
100
AcDbSymbolTableRecord
100
AcDbLayerTableRecord
  2
Access .1
 70
     0
 62
     1
  6
Continuous
370
    -3
390
7
347
A
1001
AcAecLayerStandard
1000

1000

  0
LAYER
  5
4E
330
17
100
AcDbSymbolTableRecord
100
AcDbLayerTableRecord
  2
Access .2
 70
     0
 62
     2
  6
Continuous
370
    -3
390
7
347
A
1001
AcAecLayerStandard
1000

1000

  0
LAYER
  5
3D
330
17
100
AcDbSymbolTableRecord
100
AcDbLayerTableRecord
  2
Access .3
 70
     0
 62
     3
  6
Continuous
370
    -3
390
7
347
A
1001
AcAecLayerStandard
1000

1000

  0
LAYER
  5
47
330
17
100
AcDbSymbolTableRecord
100
AcDbLayerTableRecord
  2
Access Circulation
 70
     0
 62
     6
  6
DASHED
370
    -3
390
7
347
A
1001
AcAecLayerStandard
1000

1000

  0
LAYER
  5
44
330
17
100
AcDbSymbolTableRecord
100
AcDbLayerTableRecord
  2
Access Grid
 70
     0
 62
     8
  6
CENTER
370
    -3
390
7
347
A
1001
AcAecLayerStandard
1000

1000

  0
ENDTAB
  0
TABLE
  2
STYLE
  5
1D
330
0
100
AcDbSymbolTable
 70
     1
  0
STYLE
  5
1E
330
1D
100
AcDbSymbolTableRecord
100
AcDbTextStyleTableRecord
  2
Standard
 70
     0
 40
0.0
 41
1.0
 50
0.0
 71
     0
 42
536.1425458167722
  3
ARIALN.TTF
  4

1001
ACAD
1000
Arial Narrow
1071
       34
  0
ENDTAB
  0
TABLE
  2
VIEW
  5
23
330
0
100
AcDbSymbolTable
 70
     0
  0
ENDTAB
  0
TABLE
  2
UCS
  5
24
330
0
100
AcDbSymbolTable
 70
     0
  0
ENDTAB
  0
TABLE
  2
APPID
  5
2A
330
0
100
AcDbSymbolTable
 70
     5
  0
APPID
  5
1C
330
2A
100
AcDbSymbolTableRecord
100
AcDbRegAppTableRecord
  2
ACAD
 70
     0
  0
APPID
  5
10
330
2A
100
AcDbSymbolTableRecord
100
AcDbRegAppTableRecord
  2
ACAD_PSEXT
 70
     0
  0
APPID
  5
3E
330
2A
100
AcDbSymbolTableRecord
100
AcDbRegAppTableRecord
  2
AcAecLayerStandard
 70
     0
  0
APPID
  5
34
330
2A
100
AcDbSymbolTableRecord
100
AcDbRegAppTableRecord
  2
ACAD_DSTYLE_DIMJOGGED_JOGANGLE_SYMBOL
 70
     0
  0
APPID
  5
163
330
2A
100
AcDbSymbolTableRecord
100
AcDbRegAppTableRecord
  2
ACAD_DSTYLE_DIMEXT_LENGTH
 70
     0
  0
ENDTAB
  0
TABLE
  2
DIMSTYLE
  5
2B
330
0
100
AcDbSymbolTable
 70
     1
100
AcDbDimStyleTable
 71
     1
340
2C
  0
DIMSTYLE
105
2C
330
2B
100
AcDbSymbolTableRecord
100
AcDbDimStyleTableRecord
  2
Access
 70
     0
 40
10.0
 41
2.5
 42
1.0
 43
1.0
 44
2.0
 46
2.0
 49
2.0
 50
90.0
 73
     0
 74
     0
 77
     1
 78
     9
140
1.8
141
2.5
143
0.0394
147
0.9
171
     4
173
     1
176
   256
177
   256
178
   256
271
     0
272
     0
273
     8
274
     4
279
     2
340
1E
343
2D
344
2D
1001
ACAD_DSTYLE_DIMJOGGED_JOGANGLE_SYMBOL
1070
   384
1040
1.570796326794896
  0
ENDTAB
  0
TABLE
  2
BLOCK_RECORD
  5
1
330
0
100
AcDbSymbolTable
 70
     1
  0
BLOCK_RECORD
  5
2
102
{ACAD_XDICTIONARY
360
3
102
}
330
1
100
AcDbSymbolTableRecord
100
AcDbBlockTableRecord
  2
*Model_Space
340
E
 70
     0
280
     1
281
     0
  0
BLOCK_RECORD
  5
11
330
1
100
AcDbSymbolTableRecord
100
AcDbBlockTableRecord
  2
*Paper_Space
340
14
 70
     0
280
     1
281
     0
  0
BLOCK_RECORD
  5
2D
330
1
100
AcDbSymbolTableRecord
100
AcDbBlockTableRecord
  2
_ARCHTICK
340
0
 70
     0
280
     1
281
     0
  0
ENDTAB
  0
ENDSEC
  0
SECTION
  2
BLOCKS
  0
BLOCK
  5
5
330
2
100
AcDbEntity
  8
0
100
AcDbBlockBegin
  2
*Model_Space
 70
     0
 10
0.0
 20
0.0
 30
0.0
  3
*Model_Space
  1

  0
ENDBLK
  5
D
330
2
100
AcDbEntity
  8
0
100
AcDbBlockEnd
  0
BLOCK
  5
12
330
11
100
AcDbEntity
 67
     1
  8
0
100
AcDbBlockBegin
  2
*Paper_Space
 70
     0
 10
0.0
 20
0.0
 30
0.0
  3
*Paper_Space
  1

  0
ENDBLK
  5
13
330
11
100
AcDbEntity
 67
     1
  8
0
100
AcDbBlockEnd
  0
BLOCK
  5
2E
330
2D
100
AcDbEntity
  8
0
100
AcDbBlockBegin
  2
_ARCHTICK
 70
     0
 10
0.0
 20
0.0
 30
0.0
  3
_ARCHTICK
  1

  0
POLYLINE
  5
2F
330
2D
100
AcDbEntity
  8
0
  6
ByBlock
 62
     0
100
AcDb2dPolyline
 66
     1
 10
0.0
 20
0.0
 30
0.0
 40
0.15
 41
0.15
  0
VERTEX
  5
30
330
2F
100
AcDbEntity
  8
0
  6
ByBlock
 62
     0
100
AcDbVertex
100
AcDb2dVertex
 10
-0.5
 20
-0.5
 30
0.0
  0
VERTEX
  5
31
330
2F
100
AcDbEntity
  8
0
  6
ByBlock
 62
     0
100
AcDbVertex
100
AcDb2dVertex
 10
0.5
 20
0.5
 30
0.0
  0
SEQEND
  5
32
330
2F
100
AcDbEntity
  8
0
  6
ByBlock
 62
     0
  0
ENDBLK
  5
33
330
2D
100
AcDbEntity
  8
0
100
AcDbBlockEnd
  0
ENDSEC
  0
SECTION
  2
ENTITIES
  0
LINE
  5
43
330
2
100
AcDbEntity
  8
Access Grid
100
AcDbLine
 10
-72.78919264494743
 20
-22568.54067033187
 30
0.0
 11
-1271.747298190948
 21
-22568.54067033187
 31
0.0
  0
LINE
  5
46
330
2
100
AcDbEntity
  8
Access Circulation
100
AcDbLine
 10
-315.9610590336579
 20
-22118.54067033187
 30
0.0
 11
-2315.961059033658
 21
-22118.54067033187
 31
0.0
  0
ARC
  5
49
330
2
100
AcDbEntity
  8
Access Circulation
100
AcDbCircle
 10
-2315.961059033658
 20
-22418.54067033187
 30
0.0
 40
300.0
100
AcDbArc
 50
90.0
 51
180.0
  0
LINE
  5
4A
330
2
100
AcDbEntity
  8
Access Circulation
100
AcDbLine
 10
-615.9610590336578
 20
-24018.54067033187
 30
0.0
 11
-2315.961059033658
 21
-24018.54067033187
 31
0.0
  0
ARC
  5
4B
330
2
100
AcDbEntity
  8
Access Circulation
100
AcDbCircle
 10
-615.9610590336578
 20
-23718.54067033187
 30
0.0
 40
300.0
100
AcDbArc
 50
270.0
 51
0.0
  0
LINE
  5
4C
330
2
100
AcDbEntity
  8
Access Circulation
100
AcDbLine
 10
-315.9610590336579
 20
-22118.54067033187
 30
0.0
 11
-315.9610590336579
 21
-23718.54067033187
 31
0.0
  0
LINE
  5
4D
330
2
100
AcDbEntity
  8
Access .2
100
AcDbLine
 10
-365.9610590336579
 20
-22126.54067033187
 30
0.0
 11
-365.9610590336579
 21
-22150.54067033187
 31
0.0
  0
LINE
  5
4F
330
2
100
AcDbEntity
  8
Access .2
100
AcDbLine
 10
-397.9610590336579
 20
-22126.54067033187
 30
0.0
 11
-397.9610590336579
 21
-22150.54067033187
 31
0.0
  0
LINE
  5
50
330
2
100
AcDbEntity
  8
Access Circulation
100
AcDbLine
 10
-2615.961059033658
 20
-22418.54067033187
 30
0.0
 11
-2615.961059033658
 21
-23718.54067033187
 31
0.0
  0
ARC
  5
51
330
2
100
AcDbEntity
  8
Access Circulation
100
AcDbCircle
 10
-2315.961059033658
 20
-23718.54067033187
 30
0.0
 40
300.0
100
AcDbArc
 50
180.0
 51
270.0
  0
LINE
  5
52
330
2
100
AcDbEntity
  8
Access .2
100
AcDbLine
 10
-1813.187619254227
 20
-22126.54067033187
 30
0.0
 11
-1888.187619254226
 21
-22126.54067033187
 31
0.0
  0
LINE
  5
53
330
2
100
AcDbEntity
  8
Access .2
100
AcDbLine
 10
-415.9610590336578
 20
-22168.54067033187
 30
0.0
 11
-1816.687619254227
 21
-22168.54067033187
 31
0.0
  0
LINE
  5
54
330
2
100
AcDbEntity
  8
Access .2
100
AcDbLine
 10
-415.9610590336578
 20
-22200.54067033187
 30
0.0
 11
-1816.687619254227
 21
-22200.54067033187
 31
0.0
  0
ARC
  5
55
330
2
100
AcDbEntity
  8
Access .2
100
AcDbCircle
 10
-415.9610590336578
 20
-22150.54067033187
 30
0.0
 40
50.0
100
AcDbArc
 50
270.0
 51
0.0
  0
ARC
  5
56
330
2
100
AcDbEntity
  8
Access .2
100
AcDbCircle
 10
-415.9610590336578
 20
-22150.54067033187
 30
0.0
 40
18.0
100
AcDbArc
 50
270.0
 51
0.0
  0
ARC
  5
57
330
2
100
AcDbEntity
  8
Access .2
100
AcDbCircle
 10
-1816.687619254227
 20
-22150.54067033187
 30
0.0
 40
50.0
100
AcDbArc
 50
180.0
 51
270.0
  0
ARC
  5
58
330
2
100
AcDbEntity
  8
Access .2
100
AcDbCircle
 10
-1816.687619254227
 20
-22150.54067033187
 30
0.0
 40
18.0
100
AcDbArc
 50
180.0
 51
270.0
  0
LINE
  5
59
330
2
100
AcDbEntity
  8
Access .2
100
AcDbLine
 10
-775.4610590336579
 20
-22168.54067033187
 30
0.0
 11
-775.4610590336579
 21
-22126.54067033187
 31
0.0
  0
LINE
  5
5A
330
2
100
AcDbEntity
  8
Access .2
100
AcDbLine
 10
-756.4610590336561
 20
-22168.54067033187
 30
0.0
 11
-756.4610590336597
 21
-22126.54067033187
 31
0.0
  0
LINE
  5
5B
330
2
100
AcDbEntity
  8
Access .2
100
AcDbLine
 10
-1888.187619254227
 20
-22118.54067033187
 30
0.0
 11
-1888.187619254226
 21
-22126.54067033187
 31
0.0
  0
LINE
  5
5C
330
2
100
AcDbEntity
  8
Access .2
100
AcDbLine
 10
-1866.68761925423
 20
-22126.54067033187
 30
0.0
 11
-1866.687619254227
 21
-22150.54067033187
 31
0.0
  0
LINE
  5
5D
330
2
100
AcDbEntity
  8
Access .2
100
AcDbLine
 10
-1813.187619254225
 20
-22118.54067033187
 30
0.0
 11
-1813.187619254227
 21
-22126.54067033187
 31
0.0
  0
LINE
  5
5E
330
2
100
AcDbEntity
  8
Access .2
100
AcDbLine
 10
-1834.687619254226
 20
-22126.54067033187
 30
0.0
 11
-1834.687619254224
 21
-22150.54067033187
 31
0.0
  0
LINE
  5
5F
330
2
100
AcDbEntity
  8
Access .2
100
AcDbLine
 10
-728.4610590336597
 20
-22126.54067033187
 30
0.0
 11
-803.4610590336578
 21
-22126.54067033187
 31
0.0
  0
LINE
  5
60
330
2
100
AcDbEntity
  8
Access .2
100
AcDbLine
 10
-803.4610590336596
 20
-22118.54067033187
 30
0.0
 11
-803.4610590336578
 21
-22126.54067033187
 31
0.0
  0
LINE
  5
61
330
2
100
AcDbEntity
  8
Access .2
100
AcDbLine
 10
-728.4610590336578
 20
-22118.54067033187
 30
0.0
 11
-728.4610590336597
 21
-22126.54067033187
 31
0.0
  0
LINE
  5
62
330
2
100
AcDbEntity
  8
Access .2
100
AcDbLine
 10
-344.4610590336588
 20
-22126.54067033187
 30
0.0
 11
-419.4610590336569
 21
-22126.54067033187
 31
0.0
  0
LINE
  5
63
330
2
100
AcDbEntity
  8
Access .2
100
AcDbLine
 10
-419.4610590336587
 20
-22118.54067033187
 30
0.0
 11
-419.4610590336569
 21
-22126.54067033187
 31
0.0
  0
LINE
  5
64
330
2
100
AcDbEntity
  8
Access .2
100
AcDbLine
 10
-344.461059033657
 20
-22118.54067033187
 30
0.0
 11
-344.4610590336588
 21
-22126.54067033187
 31
0.0
  0
LINE
  5
65
330
2
100
AcDbEntity
  8
Access .2
100
AcDbLine
 10
-419.4610590336587
 20
-22118.54067033187
 30
0.0
 11
-344.461059033657
 21
-22118.54067033187
 31
0.0
  0
LINE
  5
66
330
2
100
AcDbEntity
  8
Access .2
100
AcDbLine
 10
-803.4610590336596
 20
-22118.54067033187
 30
0.0
 11
-728.4610590336578
 21
-22118.54067033187
 31
0.0
  0
LINE
  5
67
330
2
100
AcDbEntity
  8
Access .2
100
AcDbLine
 10
-1888.187619254227
 20
-22118.54067033187
 30
0.0
 11
-1813.187619254225
 21
-22118.54067033187
 31
0.0
  0
LINE
  5
68
330
2
100
AcDbEntity
  8
Access .2
100
AcDbLine
 10
-323.9610590336576
 20
-22764.45656388655
 30
0.0
 11
-323.9610590336576
 21
-22839.45656388656
 31
0.0
  0
LINE
  5
69
330
2
100
AcDbEntity
  8
Access .2
100
AcDbLine
 10
-365.9610590336577
 20
-22835.95656388655
 30
0.0
 11
-365.9610590336577
 21
-23035.95656388655
 31
0.0
  0
LINE
  5
6A
330
2
100
AcDbEntity
  8
Access .2
100
AcDbLine
 10
-397.9610590336585
 20
-22835.95656388655
 30
0.0
 11
-397.9610590336577
 21
-23035.95656388655
 31
0.0
  0
ARC
  5
6B
330
2
100
AcDbEntity
  8
Access .2
100
AcDbCircle
 10
-347.9610590336585
 20
-22835.95656388655
 30
0.0
 40
50.0
100
AcDbArc
 50
90.0
 51
180.0
  0
ARC
  5
6C
330
2
100
AcDbEntity
  8
Access .2
100
AcDbCircle
 10
-347.9610590336585
 20
-22835.95656388655
 30
0.0
 40
18.0
100
AcDbArc
 50
90.0
 51
180.0
  0
LINE
  5
6D
330
2
100
AcDbEntity
  8
Access .2
100
AcDbLine
 10
-323.9610590336576
 20
-22785.95656388656
 30
0.0
 11
-347.9610590336585
 21
-22785.95656388656
 31
0.0
  0
LINE
  5
6E
330
2
100
AcDbEntity
  8
Access .2
100
AcDbLine
 10
-323.9610590336576
 20
-22817.95656388655
 30
0.0
 11
-347.9610590336585
 21
-22817.95656388655
 31
0.0
  0
LINE
  5
6F
330
2
100
AcDbEntity
  8
Access .2
100
AcDbLine
 10
-323.9610590336576
 20
-23053.95656388655
 30
0.0
 11
-347.9610590336577
 21
-23053.95656388655
 31
0.0
  0
LINE
  5
70
330
2
100
AcDbEntity
  8
Access .2
100
AcDbLine
 10
-323.9610590336576
 20
-23085.95656388655
 30
0.0
 11
-347.9610590336577
 21
-23085.95656388655
 31
0.0
  0
ARC
  5
71
330
2
100
AcDbEntity
  8
Access .2
100
AcDbCircle
 10
-347.9610590336577
 20
-23035.95656388655
 30
0.0
 40
50.0
100
AcDbArc
 50
180.0
 51
270.0
  0
ARC
  5
72
330
2
100
AcDbEntity
  8
Access .2
100
AcDbCircle
 10
-347.9610590336577
 20
-23035.95656388655
 30
0.0
 40
18.0
100
AcDbArc
 50
180.0
 51
270.0
  0
LINE
  5
73
330
2
100
AcDbEntity
  8
Access .2
100
AcDbLine
 10
-323.9610590336576
 20
-22839.45656388656
 30
0.0
 11
-315.9610590336577
 21
-22839.45656388656
 31
0.0
  0
LINE
  5
74
330
2
100
AcDbEntity
  8
Access .2
100
AcDbLine
 10
-323.9610590336576
 20
-22764.45656388655
 30
0.0
 11
-315.9610590336577
 21
-22764.45656388656
 31
0.0
  0
LINE
  5
75
330
2
100
AcDbEntity
  8
Access .2
100
AcDbLine
 10
-323.9610590336576
 20
-23032.45656388655
 30
0.0
 11
-323.9610590336576
 21
-23107.45656388655
 31
0.0
  0
LINE
  5
76
330
2
100
AcDbEntity
  8
Access .2
100
AcDbLine
 10
-323.9610590336576
 20
-23107.45656388655
 30
0.0
 11
-315.9610590336577
 21
-23107.45656388655
 31
0.0
  0
LINE
  5
77
330
2
100
AcDbEntity
  8
Access .2
100
AcDbLine
 10
-323.9610590336576
 20
-23032.45656388655
 30
0.0
 11
-315.9610590336577
 21
-23032.45656388655
 31
0.0
  0
LINE
  5
78
330
2
100
AcDbEntity
  8
Access .2
100
AcDbLine
 10
-315.9610590336577
 20
-22764.45656388656
 30
0.0
 11
-315.9610590336577
 21
-22839.45656388656
 31
0.0
  0
LINE
  5
79
330
2
100
AcDbEntity
  8
Access .2
100
AcDbLine
 10
-315.9610590336577
 20
-23032.45656388655
 30
0.0
 11
-315.9610590336577
 21
-23107.45656388655
 31
0.0
  0
LWPOLYLINE
  5
7A
330
2
100
AcDbEntity
  8
Access .2
100
AcDbPolyline
 90
        7
 70
     0
 43
0.0
 10
-470.5113214848297
 20
-22732.96657365218
 10
-493.7572931645172
 20
-22733.35597794905
 10
-517.3612970707672
 20
-22733.85939591781
 10
-542.2329096195953
 20
-22734.51869767562
 10
-566.873198926236
 20
-22735.30489152327
 10
-591.5286554692047
 20
-22736.2099818553
 10
-603.8421320317048
 20
-22736.69753068343
  0
LWPOLYLINE
  5
7B
330
2
100
AcDbEntity
  8
Access .2
100
AcDbPolyline
 90
        9
 70
     0
 43
0.0
 10
-470.7773737309235
 20
-22406.4814662303
 10
-489.3254694340485
 20
-22406.19191544905
 10
-507.796782910611
 20
-22405.83681290999
 10
-521.1079401371734
 20
-22405.53566544905
 10
-536.0144037602204
 20
-22405.15102189437
 10
-550.8914179203766
 20
-22404.71645158187
 10
-564.1001276371735
 20
-22404.2890834178
 10
-583.8891901371734
 20
-22403.58144181624
 10
-603.7304682133453
 20
-22402.80409806624
  0
LWPOLYLINE
  5
7C
330
2
100
AcDbEntity
  8
Access .2
100
AcDbPolyline
 90
       11
 70
     0
 43
0.0
 10
-903.0677790043609
 20
-22676.06239884749
 10
-909.4666437504548
 20
-22675.23219865218
 10
-915.8515314457671
 20
-22674.2685756053
 10
-922.1681208012359
 20
-22673.17665665999
 10
-928.3904718754547
 20
-22671.95381730452
 10
-932.4830622074859
 20
-22671.06233781233
 10
-936.5330500004548
 20
-22670.10646623031
 10
-940.5440363285798
 20
-22669.08333390608
 10
-944.5200495121735
 20
-22667.99037736312
 10
-948.4647516606109
 20
-22666.82570451155
 10
-952.3803400395172
 20
-22665.58846085921
  0
LWPOLYLINE
  5
7D
330
2
100
AcDbEntity
  8
Access .2
100
AcDbPolyline
 90
       11
 70
     0
 43
0.0
 10
-903.0677790043609
 20
-22464.49648087874
 10
-909.4666437504548
 20
-22465.32668107406
 10
-915.8515314457671
 20
-22466.29030412093
 10
-922.1681208012359
 20
-22467.38222306624
 10
-928.3904718754547
 20
-22468.60506242171
 10
-932.4830622074859
 20
-22469.4965419139
 10
-936.5330500004548
 20
-22470.45241349593
 10
-940.5440363285798
 20
-22471.47554582015
 10
-944.5200495121735
 20
-22472.56850236312
 10
-948.4647516606109
 20
-22473.73317521468
 10
-952.3803400395172
 20
-22474.97041886702
  0
LWPOLYLINE
  5
7E
330
2
100
AcDbEntity
  8
Access .2
100
AcDbPolyline
 90
       11
 70
     0
 43
0.0
 10
-974.2550958988923
 20
-22407.95046037093
 10
-968.0359186527985
 20
-22405.99941056624
 10
-961.7763361332672
 20
-22404.18910783187
 10
-955.4826959965485
 20
-22402.52101701155
 10
-949.1640314457672
 20
-22400.99281876937
 10
-942.8295587895172
 20
-22399.60024064437
 10
-936.4864191410797
 20
-22398.33705705062
 10
-930.227202832486
 20
-22397.21169083968
 10
-923.963042676236
 20
-22396.19887345686
 10
-917.6901544926423
 20
-22395.29323380843
 10
-911.3987726567048
 20
-22394.49037736312
  0
LWPOLYLINE
  5
7F
330
2
100
AcDbEntity
  8
Access .2
100
AcDbPolyline
 90
       11
 70
     0
 43
0.0
 10
-974.2550958988923
 20
-22732.6084193553
 10
-968.0359186527985
 20
-22734.55953019515
 10
-961.7763361332672
 20
-22736.36971085921
 10
-955.4826959965485
 20
-22738.03786271468
 10
-949.1640314457672
 20
-22739.56606095687
 10
-942.8295587895172
 20
-22740.95863908187
 10
-936.4864191410797
 20
-22742.22182267562
 10
-930.227202832486
 20
-22743.34724992171
 10
-923.963042676236
 20
-22744.36000626937
 10
-917.6901544926423
 20
-22745.26570695296
 10
-911.3987726567048
 20
-22746.06844132796
  0
LWPOLYLINE
  5
80
330
2
100
AcDbEntity
  8
Access .2
100
AcDbPolyline
 90
        6
 70
     0
 43
0.0
 10
-1105.19979804733
 20
-22530.76094621077
 10
-1103.911651074673
 20
-22526.54872697249
 10
-1102.522429883267
 20
-22522.36745255843
 10
-1101.024383008267
 20
-22518.21144669905
 10
-1099.412993848111
 20
-22514.08089249983
 10
-1097.660369336392
 20
-22509.92238419905
  0
LWPOLYLINE
  5
81
330
2
100
AcDbEntity
  8
Access .2
100
AcDbPolyline
 90
        6
 70
     0
 43
0.0
 10
-1105.19979804733
 20
-22609.79793351546
 10
-1103.911651074673
 20
-22614.01015275374
 10
-1102.522429883267
 20
-22618.19142716781
 10
-1101.024383008267
 20
-22622.34743302718
 10
-1099.412993848111
 20
-22626.4779872264
 10
-1097.660369336392
 20
-22630.63649552718
  0
LWPOLYLINE
  5
82
330
2
100
AcDbEntity
  8
Access .2
100
AcDbPolyline
 90
       12
 70
     0
 43
0.0
 10
-1111.421782910611
 20
-22570.28157609358
 10
-1111.402068555142
 20
-22572.39937394515
 10
-1111.342559277798
 20
-22574.51155656234
 10
-1111.108550488736
 20
-22578.71474259749
 10
-1110.729155957486
 20
-22582.88356583968
 10
-1110.214934766079
 20
-22587.01271623031
 10
-1109.576934277798
 20
-22591.09834855452
 10
-1109.147002637173
 20
-22593.48836320296
 10
-1108.680144727017
 20
-22595.86214249984
 10
-1107.644072949673
 20
-22600.56209367171
 10
-1106.481719434048
 20
-22605.20418351546
 10
-1105.19979804733
 20
-22609.79793351546
  0
LWPOLYLINE
  5
83
330
2
100
AcDbEntity
  8
Access .2
100
AcDbPolyline
 90
       12
 70
     0
 43
0.0
 10
-1111.421782910611
 20
-22570.27730363265
 10
-1111.402068555142
 20
-22568.15950578109
 10
-1111.342559277798
 20
-22566.0473231639
 10
-1111.108550488736
 20
-22561.84413712874
 10
-1110.729155957486
 20
-22557.67531388655
 10
-1110.214934766079
 20
-22553.54616349593
 10
-1109.576934277798
 20
-22549.46053117171
 10
-1109.147002637173
 20
-22547.07051652327
 10
-1108.680144727017
 20
-22544.6967372264
 10
-1107.644072949673
 20
-22539.99678605452
 10
-1106.481719434048
 20
-22535.35469621077
 10
-1105.19979804733
 20
-22530.76094621077
  0
LWPOLYLINE
  5
84
330
2
100
AcDbEntity
  8
Access .2
100
AcDbPolyline
 90
        9
 70
     0
 43
0.0
 10
-1027.662749707486
 20
-22612.76265519515
 10
-1029.191924512173
 20
-22610.16121476546
 10
-1030.623748242642
 20
-22607.51442521468
 10
-1031.963530957486
 20
-22604.81325333968
 10
-1033.221465527798
 20
-22602.03548234358
 10
-1034.408111035611
 20
-22599.15846818343
 10
-1035.529509961392
 20
-22596.1709193553
 10
-1036.582854687955
 20
-22593.08589738265
 10
-1037.551787793423
 20
-22589.95284074202
  0
LWPOLYLINE
  5
85
330
2
100
AcDbEntity
  8
Access .2
100
AcDbPolyline
 90
        9
 70
     0
 43
0.0
 10
-1007.666778027798
 20
-22636.01155656234
 10
-1010.619597852017
 20
-22633.36232560531
 10
-1013.451507031705
 20
-22630.6313075389
 10
-1016.165618359829
 20
-22627.81416886702
 10
-1018.755401074673
 20
-22624.91731828109
 10
-1021.209563672329
 20
-22621.95332902327
 10
-1023.516082227017
 20
-22618.93532365218
 10
-1025.667022168423
 20
-22615.87203019515
 10
-1027.662749707486
 20
-22612.76265519515
  0
LWPOLYLINE
  5
86
330
2
100
AcDbEntity
  8
Access .2
100
AcDbPolyline
 90
       21
 70
     0
 43
0.0
 10
-1053.815764844205
 20
-22689.30745499984
 10
-1050.978728711392
 20
-22691.71468156233
 10
-1048.096953809048
 20
-22694.06148332015
 10
-1045.173247754361
 20
-22696.34773820296
 10
-1042.954619824673
 20
-22698.02278703108
 10
-1040.71493476608
 20
-22699.66402238265
 10
-1036.176360547329
 20
-22702.84560197249
 10
-1031.564483105923
 20
-22705.89461320296
 10
-1026.885528027798
 20
-22708.81355851546
 10
-1022.144866406704
 20
-22711.60555070296
 10
-1017.949981152798
 20
-22713.94704240218
 10
-1013.714507519986
 20
-22716.19637101546
 10
-1009.44100898483
 20
-22718.3559169139
 10
-1005.131987988736
 20
-22720.42806046858
 10
-1002.240752637173
 20
-22721.76198380843
 10
-999.3355402348297
 20
-22723.05873673812
 10
-993.485747754361
 20
-22725.54250138655
 10
-988.7215875981111
 20
-22727.44557755843
 10
-983.9271540043609
 20
-22729.25710099593
 10
-979.1044000981109
 20
-22730.9779872264
 10
-974.2550958988923
 20
-22732.6084193553
  0
LWPOLYLINE
  5
87
330
2
100
AcDbEntity
  8
Access .2
100
AcDbPolyline
 90
       13
 70
     0
 43
0.0
 10
-1053.815764844205
 20
-22689.30745499984
 10
-1057.041350781704
 20
-22686.4457606639
 10
-1060.207793652798
 20
-22683.49934953108
 10
-1063.309112012173
 20
-22680.47182267562
 10
-1066.340911328579
 20
-22677.36476701156
 10
-1069.300445019986
 20
-22674.17824357405
 10
-1072.18563789108
 20
-22670.91139787093
 10
-1074.994719922329
 20
-22667.56282609359
 10
-1077.725799023892
 20
-22664.13094132796
 10
-1080.376311719205
 20
-22660.61464494124
 10
-1082.942229687954
 20
-22657.01381486312
 10
-1085.41805976608
 20
-22653.32967179671
 10
-1087.795806348111
 20
-22649.56514542952
  0
LWPOLYLINE
  5
88
330
2
100
AcDbEntity
  8
Access .2
100
AcDbPolyline
 90
       11
 70
     0
 43
0.0
 10
-1087.795806348111
 20
-22649.56514542952
 10
-1085.207305371548
 20
-22653.65205949202
 10
-1082.498870312955
 20
-22657.65102189436
 10
-1079.678252637173
 20
-22661.55971330062
 10
-1076.750640332486
 20
-22665.37746232405
 10
-1073.719695508267
 20
-22669.10439103499
 10
-1070.588286816861
 20
-22672.74056046859
 10
-1067.359710156704
 20
-22676.28566544905
 10
-1064.08407539108
 20
-22679.69197648421
 10
-1060.720977246548
 20
-22683.00838273421
 10
-1057.275786816861
 20
-22686.23238175765
  0
LWPOLYLINE
  5
89
330
2
100
AcDbEntity
  8
Access .2
100
AcDbPolyline
 90
        6
 70
     0
 43
0.0
 10
-1097.659453809048
 20
-22630.63612931624
 10
-1095.891631543423
 20
-22634.52510636702
 10
-1094.02059882858
 20
-22638.3656825389
 10
-1092.04598945358
 20
-22642.15407365218
 10
-1089.968474805142
 20
-22645.88686173812
 10
-1087.789397656705
 20
-22649.56123917952
  0
ARC
  5
8A
330
2
100
AcDbEntity
  8
Access .2
100
AcDbCircle
 10
-934.7287897465484
 20
-22551.71828263655
 30
0.0
 40
181.9672241210937
100
AcDbArc
 50
227.6653856187738
 51
229.1229473279638
  0
LWPOLYLINE
  5
8B
330
2
100
AcDbEntity
  8
Access .2
100
AcDbPolyline
 90
       22
 70
     0
 43
0.0
 10
-952.3803400395172
 20
-22665.58846085921
 10
-957.6221613285797
 20
-22663.80214494124
 10
-962.7911066410797
 20
-22661.8871669139
 10
-967.8753351567047
 20
-22659.84486955062
 10
-970.3814386723298
 20
-22658.77651017562
 10
-972.8612970707672
 20
-22657.67696183577
 10
-975.3130792973298
 20
-22656.54652970687
 10
-977.735015332486
 20
-22655.38551896468
 10
-980.1253351567048
 20
-22654.19411271468
 10
-982.4822687504548
 20
-22652.97267716781
 10
-984.8042291996735
 20
-22651.72139542952
 10
-987.0894464848298
 20
-22650.4404506053
 10
-989.3365778324859
 20
-22649.13002580062
 10
-991.5441583988922
 20
-22647.79024308577
 10
-993.7109064457672
 20
-22646.42122453108
 10
-995.8357233402985
 20
-22645.02297013655
 10
-997.9176935551421
 20
-22643.59541886702
 10
-999.9560846684234
 20
-22642.13844865218
 10
-1001.95028632858
 20
-22640.65193742171
 10
-1003.900176465298
 20
-22639.13557999984
 10
-1005.805571973111
 20
-22637.5888881053
 10
-1007.666778027798
 20
-22636.01155656234
  0
LWPOLYLINE
  5
8C
330
2
100
AcDbEntity
  8
Access .2
100
AcDbPolyline
 90
        9
 70
     0
 43
0.0
 10
-1007.666778027798
 20
-22504.5473231639
 10
-1010.619597852017
 20
-22507.19655412093
 10
-1013.451507031705
 20
-22509.92757218734
 10
-1016.165618359829
 20
-22512.74471085921
 10
-1018.755401074673
 20
-22515.64156144515
 10
-1021.209563672329
 20
-22518.60555070296
 10
-1023.516082227017
 20
-22521.62355607405
 10
-1025.667022168423
 20
-22524.68684953108
 10
-1027.662749707486
 20
-22527.79622453108
  0
LWPOLYLINE
  5
8D
330
2
100
AcDbEntity
  8
Access .2
100
AcDbPolyline
 90
       21
 70
     0
 43
0.0
 10
-1053.815764844205
 20
-22451.25148576156
 10
-1050.978728711392
 20
-22448.84425919905
 10
-1048.096953809048
 20
-22446.49745744124
 10
-1045.173247754361
 20
-22444.21108048812
 10
-1042.954619824673
 20
-22442.53603165999
 10
-1040.71493476608
 20
-22440.89491837874
 10
-1036.176360547329
 20
-22437.71327775374
 10
-1031.564483105923
 20
-22434.66420548811
 10
-1026.885528027798
 20
-22431.74526017562
 10
-1022.144866406704
 20
-22428.95339005843
 10
-1017.949981152798
 20
-22426.61183732405
 10
-1013.714507519986
 20
-22424.36244767562
 10
-1009.44100898483
 20
-22422.20302384749
 10
-1005.131987988736
 20
-22420.1308802928
 10
-1002.240752637173
 20
-22418.7968959178
 10
-999.3355402348297
 20
-22417.50014298812
 10
-993.485747754361
 20
-22415.01637833968
 10
-988.7215875981111
 20
-22413.11330216781
 10
-983.9271540043609
 20
-22411.30177873031
 10
-979.1044000981109
 20
-22409.58083146468
 10
-974.2550958988923
 20
-22407.95046037093
  0
LWPOLYLINE
  5
8E
330
2
100
AcDbEntity
  8
Access .2
100
AcDbPolyline
 90
       13
 70
     0
 43
0.0
 10
-1053.815764844205
 20
-22451.25148576156
 10
-1057.041350781704
 20
-22454.11311906233
 10
-1060.207793652798
 20
-22457.05953019515
 10
-1063.309112012173
 20
-22460.08705705062
 10
-1066.340911328579
 20
-22463.19411271468
 10
-1069.300445019986
 20
-22466.38063615218
 10
-1072.18563789108
 20
-22469.64748185531
 10
-1074.994719922329
 20
-22472.99605363265
 10
-1077.725799023892
 20
-22476.42793839827
 10
-1080.376311719205
 20
-22479.94423478499
 10
-1082.942229687954
 20
-22483.54506486311
 10
-1085.41805976608
 20
-22487.22920792952
 10
-1087.795806348111
 20
-22490.99373429671
  0
LWPOLYLINE
  5
8F
330
2
100
AcDbEntity
  8
Access .2
100
AcDbPolyline
 90
       11
 70
     0
 43
0.0
 10
-1087.795806348111
 20
-22490.99373429671
 10
-1085.207305371548
 20
-22486.90682023421
 10
-1082.498870312955
 20
-22482.90785783187
 10
-1079.678252637173
 20
-22478.99916642562
 10
-1076.750640332486
 20
-22475.18141740218
 10
-1073.719695508267
 20
-22471.45448869124
 10
-1070.588286816861
 20
-22467.81831925765
 10
-1067.359710156704
 20
-22464.27321427718
 10
-1064.08407539108
 20
-22460.86690324202
 10
-1060.720977246548
 20
-22457.55049699202
 10
-1057.275786816861
 20
-22454.32649796859
  0
LWPOLYLINE
  5
90
330
2
100
AcDbEntity
  8
Access .2
100
AcDbPolyline
 90
        6
 70
     0
 43
0.0
 10
-1097.659453809048
 20
-22509.92275040999
 10
-1095.891631543423
 20
-22506.03377335921
 10
-1094.02059882858
 20
-22502.19319718734
 10
-1092.04598945358
 20
-22498.40480607405
 10
-1089.968474805142
 20
-22494.67201798811
 10
-1087.789397656705
 20
-22490.99764054671
  0
LWPOLYLINE
  5
91
330
2
100
AcDbEntity
  8
Access .2
100
AcDbPolyline
 90
       10
 70
     0
 43
0.0
 10
-1040.921782910611
 20
-22570.28346818343
 10
-1040.900542676236
 20
-22571.61745255843
 10
-1040.83749335983
 20
-22572.94948380843
 10
-1040.601531445767
 20
-22575.60652726546
 10
-1040.241118848111
 20
-22578.25215714827
 10
-1039.91073554733
 20
-22580.18263810531
 10
-1039.532256543423
 20
-22582.1045131053
 10
-1039.090728223111
 20
-22584.10530656234
 10
-1038.607390820767
 20
-22586.09499162093
 10
-1037.552764355923
 20
-22589.9531459178
  0
LWPOLYLINE
  5
92
330
2
100
AcDbEntity
  8
Access .2
100
AcDbPolyline
 90
       10
 70
     0
 43
0.0
 10
-1037.551787793423
 20
-22550.60603898421
 10
-1038.560637891079
 20
-22554.2793177928
 10
-1039.417998730923
 20
-22557.91042130843
 10
-1039.781768262173
 20
-22559.68904679671
 10
-1040.098540723111
 20
-22561.4330653514
 10
-1040.55575507858
 20
-22564.56850236312
 10
-1040.716765820767
 20
-22566.07283585921
 10
-1040.831450879361
 20
-22567.52809708968
 10
-1040.899688184048
 20
-22568.92799943343
 10
-1040.922759473111
 20
-22570.2754115428
  0
LWPOLYLINE
  5
93
330
2
100
AcDbEntity
  8
Access .2
100
AcDbPolyline
 90
        9
 70
     0
 43
0.0
 10
-1027.662749707486
 20
-22527.79622453108
 10
-1029.191924512173
 20
-22530.39766496077
 10
-1030.623748242642
 20
-22533.04445451155
 10
-1031.963530957486
 20
-22535.74562638656
 10
-1033.221465527798
 20
-22538.52339738265
 10
-1034.408111035611
 20
-22541.4004115428
 10
-1035.529509961392
 20
-22544.38796037093
 10
-1036.582854687955
 20
-22547.47298234359
 10
-1037.551787793423
 20
-22550.60603898421
  0
ARC
  5
94
330
2
100
AcDbEntity
  8
Access .2
100
AcDbCircle
 10
-934.7287897465484
 20
-22588.84059708968
 30
0.0
 40
181.9672241210937
100
AcDbArc
 50
130.8770526720361
 51
132.3346143812262
  0
LWPOLYLINE
  5
95
330
2
100
AcDbEntity
  8
Access .2
100
AcDbPolyline
 90
       22
 70
     0
 43
0.0
 10
-952.3803400395172
 20
-22474.97041886702
 10
-957.6221613285797
 20
-22476.75673478499
 10
-962.7911066410797
 20
-22478.67171281233
 10
-967.8753351567047
 20
-22480.71401017562
 10
-970.3814386723298
 20
-22481.78236955062
 10
-972.8612970707672
 20
-22482.88191789046
 10
-975.3130792973298
 20
-22484.01235001937
 10
-977.735015332486
 20
-22485.17336076155
 10
-980.1253351567048
 20
-22486.36476701155
 10
-982.4822687504548
 20
-22487.58620255843
 10
-984.8042291996735
 20
-22488.83748429671
 10
-987.0894464848298
 20
-22490.11842912093
 10
-989.3365778324859
 20
-22491.42885392562
 10
-991.5441583988922
 20
-22492.76863664046
 10
-993.7109064457672
 20
-22494.13765519515
 10
-995.8357233402985
 20
-22495.53590958968
 10
-997.9176935551421
 20
-22496.96346085921
 10
-999.9560846684234
 20
-22498.42043107405
 10
-1001.95028632858
 20
-22499.90694230452
 10
-1003.900176465298
 20
-22501.4232997264
 10
-1005.805571973111
 20
-22502.96999162093
 10
-1007.666778027798
 20
-22504.5473231639
  0
LWPOLYLINE
  5
96
330
2
100
AcDbEntity
  8
Access .2
100
AcDbPolyline
 90
        4
 70
     0
 43
0.0
 10
-715.5637506840484
 20
-22398.1103724803
 10
-756.482818066861
 20
-22396.5556849803
 10
-799.3187250492828
 20
-22395.07839005843
 10
-840.6618721618606
 20
-22393.77378759258
  0
LWPOLYLINE
  5
97
330
2
100
AcDbEntity
  8
Access .2
100
AcDbPolyline
 90
        4
 70
     0
 43
0.0
 10
-715.5637506840484
 20
-22741.31465714827
 10
-756.482818066861
 20
-22742.86922257796
 10
-799.3187250492828
 20
-22744.34657853499
 10
-824.9010933462701
 20
-22745.15380627781
  0
LWPOLYLINE
  5
98
330
2
100
AcDbEntity
  8
Access .2
100
AcDbPolyline
 90
        6
 70
     0
 43
0.0
 10
-750.8916620610015
 20
-22426.68080705062
 10
-754.2086176274079
 20
-22424.2285365428
 10
-757.6047052738922
 20
-22421.88307755843
 10
-761.0762018559235
 20
-22419.64760392562
 10
-763.7234796879547
 20
-22418.03835099593
 10
-766.3997797367828
 20
-22416.47572892562
  0
LWPOLYLINE
  5
99
330
2
100
AcDbEntity
  8
Access .2
100
AcDbPolyline
 90
        6
 70
     0
 43
0.0
 10
-750.8916620610015
 20
-22713.87807267561
 10
-754.2086176274079
 20
-22716.33040421859
 10
-757.6047052738922
 20
-22718.6758021678
 10
-761.0762018559235
 20
-22720.91121476546
 10
-763.7234796879547
 20
-22722.5205287303
 10
-766.3997797367828
 20
-22724.08315080062
  0
LWPOLYLINE
  5
9A
330
2
100
AcDbEntity
  8
Access .2
100
AcDbPolyline
 90
       13
 70
     0
 43
0.0
 10
-761.519927441861
 20
-22580.28291886702
 10
-761.9657587406891
 20
-22584.18385880843
 10
-762.5552973149078
 20
-22588.0600184764
 10
-763.2860712406891
 20
-22591.90266984358
 10
-764.1557001469391
 20
-22595.70448869124
 10
-765.1619562504547
 20
-22599.45955460921
 10
-766.3025202152985
 20
-22603.16292374984
 10
-767.5751337406891
 20
-22606.81038468733
 10
-768.8601068852204
 20
-22610.11256974593
 10
-770.2531427738922
 20
-22613.36214249983
 10
-771.7527765629547
 20
-22616.55745499984
 10
-773.3577265141266
 20
-22619.69692033187
 10
-775.0671991703766
 20
-22622.77913468734
  0
LWPOLYLINE
  5
9B
330
2
100
AcDbEntity
  8
Access .2
100
AcDbPolyline
 90
       13
 70
     0
 43
0.0
 10
-761.519927441861
 20
-22560.27596085921
 10
-761.9657587406891
 20
-22556.3750209178
 10
-762.5552973149078
 20
-22552.49886124984
 10
-763.2860712406891
 20
-22548.65620988265
 10
-764.1557001469391
 20
-22544.85439103499
 10
-765.1619562504547
 20
-22541.09932511702
 10
-766.3025202152985
 20
-22537.3959559764
 10
-767.5751337406891
 20
-22533.7484950389
 10
-768.8601068852204
 20
-22530.4463099803
 10
-770.2531427738922
 20
-22527.1967372264
 10
-771.7527765629547
 20
-22524.0014247264
 10
-773.3577265141266
 20
-22520.86195939436
 10
-775.0671991703766
 20
-22517.7797450389
  0
LWPOLYLINE
  5
9C
330
2
100
AcDbEntity
  8
Access .2
100
AcDbPolyline
 90
        9
 70
     0
 43
0.0
 10
-834.9480280277985
 20
-22746.32088273421
 10
-839.163482129361
 20
-22746.67574113265
 10
-843.3829645512359
 20
-22746.98378556624
 10
-847.6042169926422
 20
-22747.26375382796
 10
-853.9216608402984
 20
-22747.64143937483
 10
-860.2028498051422
 20
-22747.95369523421
 10
-864.2917169926422
 20
-22748.10768693343
 10
-871.080474316861
 20
-22748.25478165999
 10
-876.4897760746734
 20
-22748.27943986311
  0
ARC
  5
9D
330
2
100
AcDbEntity
  8
Access .2
100
AcDbCircle
 10
-875.7245783207672
 20
-22549.60762589827
 30
0.0
 40
128.1183013916015
100
AcDbArc
 50
277.2478868753418
 51
285.0294937265264
  0
LWPOLYLINE
  5
9E
330
2
100
AcDbEntity
  8
Access .2
100
AcDbPolyline
 90
        6
 70
     0
 43
0.0
 10
-876.4897760746734
 20
-22677.77943986311
 10
-881.703032910611
 20
-22677.70619767562
 10
-886.945952832486
 20
-22677.48988908186
 10
-892.2323908207673
 20
-22677.13893693343
 10
-897.5656427738922
 20
-22676.66432755843
 10
-903.0677790043609
 20
-22676.06245988265
  0
LWPOLYLINE
  5
9F
330
2
100
AcDbEntity
  8
Access .2
100
AcDbPolyline
 90
        9
 70
     0
 43
0.0
 10
-911.3987726567048
 20
-22746.06844132796
 10
-904.5300592777985
 20
-22746.82039445296
 10
-897.6159967777984
 20
-22747.43343156234
 10
-894.1116632817047
 20
-22747.68507951155
 10
-890.5959162113923
 20
-22747.89528458968
 10
-887.1289972660797
 20
-22748.05934708968
 10
-883.6537775395171
 20
-22748.17903703108
 10
-880.0738825199859
 20
-22748.25417130843
 10
-876.4897760746734
 20
-22748.27943986311
  0
LWPOLYLINE
  5
A0
330
2
100
AcDbEntity
  8
Access .2
100
AcDbPolyline
 90
        5
 70
     0
 43
0.0
 10
-925.508941113736
 20
-22672.5395106639
 10
-919.9252619145172
 20
-22673.58034318343
 10
-914.321196973111
 20
-22674.50984757796
 10
-908.7011408207672
 20
-22675.33705705062
 10
-903.0677790043609
 20
-22676.06221574202
  0
ARC
  5
A1
330
2
100
AcDbEntity
  8
Access .2
100
AcDbCircle
 10
-875.8625788090485
 20
-22376.38051408187
 30
0.0
 40
371.8975524902344
100
AcDbArc
 50
270.0869662957607
 51
272.5655737024825
  0
ARC
  5
A2
330
2
100
AcDbEntity
  8
Access .2
100
AcDbCircle
 10
-876.4654230473297
 20
-22544.32399552718
 30
0.0
 40
133.454833984375
100
AcDbArc
 50
270.6664190339582
 51
277.2772159269762
  0
ARC
  5
A3
330
2
100
AcDbEntity
  8
Access .2
100
AcDbCircle
 10
-876.4886774418609
 20
-22543.94228165999
 30
0.0
 40
133.837158203125
100
AcDbArc
 50
269.9995262124785
 51
270.6703054516294
  0
ARC
  5
A4
330
2
100
AcDbEntity
  8
Access .2
100
AcDbCircle
 10
-876.5036920902984
 20
-22543.33461564437
 30
0.0
 40
134.4448089599609
100
AcDbArc
 50
270.0059329297222
 51
270.6778254804617
  0
LWPOLYLINE
  5
A5
330
2
100
AcDbEntity
  8
Access .2
100
AcDbPolyline
 90
        7
 70
     0
 43
0.0
 10
-798.2051691410797
 20
-22738.68080705061
 10
-802.3892816899078
 20
-22739.98195451155
 10
-806.6036066410797
 20
-22741.18099015609
 10
-810.8429865238923
 20
-22742.28371232406
 10
-815.1043085453766
 20
-22743.28395646468
 10
-819.3858332035798
 20
-22744.16982072249
 10
-823.686431348111
 20
-22744.92995255843
  0
ELLIPSE
  5
A6
330
2
100
AcDbEntity
  8
Access .2
100
AcDbEllipse
 10
-900.1309503910798
 20
-22544.63002580062
 30
0.0
 11
118.2216186523437
 21
-88.52703857421877
 31
0.0
210
0.0
220
0.0
230
1.0
 40
0.8422167034274464
 41
5.972350120544433
 42
6.182943820953369
  0
LWPOLYLINE
  5
A7
330
2
100
AcDbEntity
  8
Access .2
100
AcDbPolyline
 90
        5
 70
     0
 43
0.0
 10
-823.6797174809234
 20
-22744.97035783187
 10
-826.2511896488922
 20
-22745.35658830062
 10
-828.829497754361
 20
-22745.69746964827
 10
-831.8849787113922
 20
-22746.04665177718
 10
-834.9458917973297
 20
-22746.3457240428
  0
ELLIPSE
  5
A8
330
2
100
AcDbEntity
  8
Access .2
100
AcDbEllipse
 10
-896.8708795902985
 20
-22549.60225480452
 30
0.0
 11
117.613037109375
 21
-79.77679443359375
 31
0.0
210
0.0
220
0.0
230
1.0
 40
0.8532996340897767
 41
5.648682594299316
 42
5.926985263824462
  0
LWPOLYLINE
  5
A9
330
2
100
AcDbEntity
  8
Access .2
100
AcDbPolyline
 90
       12
 70
     0
 43
0.0
 10
-766.3997797367828
 20
-22724.08315080062
 10
-770.770659863736
 20
-22726.52724259749
 10
-775.1936640141266
 20
-22728.87990373031
 10
-779.6683039067048
 20
-22731.13527482405
 10
-781.9270319340485
 20
-22732.21889298812
 10
-784.2014459965485
 20
-22733.26796525374
 10
-786.4926447270172
 20
-22734.27852433577
 10
-788.8012995121735
 20
-22735.24727433577
 10
-791.022124707486
 20
-22736.13094132796
 10
-793.2587885258453
 20
-22736.97347062483
 10
-795.7243646977204
 20
-22737.8496302928
 10
-798.2051691410797
 20
-22738.68080705061
  0
ARC
  5
AA
330
2
100
AcDbEntity
  8
Access .2
100
AcDbCircle
 10
-865.5666803715485
 20
-22570.5453700389
 30
0.0
 40
104.4921035766601
100
AcDbArc
 50
316.3459145638649
 51
330.0076695820386
  0
LWPOLYLINE
  5
AB
330
2
100
AcDbEntity
  8
Access .2
100
AcDbPolyline
 90
        9
 70
     0
 43
0.0
 10
-834.9480280277985
 20
-22394.23793595687
 10
-839.163482129361
 20
-22393.88319962874
 10
-843.3829645512359
 20
-22393.57509415999
 10
-847.6042169926422
 20
-22393.29506486312
 10
-853.9216608402984
 20
-22392.91737931624
 10
-860.2028498051422
 20
-22392.60524552718
 10
-864.2917169926422
 20
-22392.45119279281
 10
-871.080474316861
 20
-22392.30409806624
 10
-876.4897760746734
 20
-22392.27943986312
  0
ARC
  5
AC
330
2
100
AcDbEntity
  8
Access .2
100
AcDbCircle
 10
-875.7245783207672
 20
-22590.95125382796
 30
0.0
 40
128.1183013916015
100
AcDbArc
 50
74.97050627347362
 51
82.75211312465811
  0
LWPOLYLINE
  5
AD
330
2
100
AcDbEntity
  8
Access .2
100
AcDbPolyline
 90
        6
 70
     0
 43
0.0
 10
-876.4897760746734
 20
-22462.77943986312
 10
-881.703032910611
 20
-22462.85268205062
 10
-886.945952832486
 20
-22463.06899064437
 10
-892.2323908207673
 20
-22463.4199427928
 10
-897.5656427738922
 20
-22463.8945521678
 10
-903.0677790043609
 20
-22464.49641984359
  0
LWPOLYLINE
  5
AE
330
2
100
AcDbEntity
  8
Access .2
100
AcDbPolyline
 90
        5
 70
     0
 43
0.0
 10
-925.508941113736
 20
-22468.01936906233
 10
-919.9252619145172
 20
-22466.9785365428
 10
-914.321196973111
 20
-22466.04903214827
 10
-908.7011408207672
 20
-22465.22182267562
 10
-903.0677790043609
 20
-22464.49666398421
  0
ARC
  5
AF
330
2
100
AcDbEntity
  8
Access .2
100
AcDbCircle
 10
-876.4712824223297
 20
-22596.22096818343
 30
0.0
 40
133.4412384033203
100
AcDbArc
 50
82.71953300182818
 51
89.33099913171886
  0
ARC
  5
B0
330
2
100
AcDbEntity
  8
Access .2
100
AcDbCircle
 10
-876.4886774418609
 20
-22596.61659806624
 30
0.0
 40
133.837158203125
100
AcDbArc
 50
89.32969454837056
 51
90.00047378752142
  0
LWPOLYLINE
  5
B1
330
2
100
AcDbEntity
  8
Access .2
100
AcDbPolyline
 90
        9
 70
     0
 43
0.0
 10
-911.3987726567048
 20
-22394.49037736312
 10
-904.5300592777985
 20
-22393.73842423812
 10
-897.6159967777984
 20
-22393.12550919905
 10
-894.1116632817047
 20
-22392.87380021468
 10
-890.5959162113923
 20
-22392.66359513655
 10
-887.1289972660797
 20
-22392.49953263656
 10
-883.6537775395171
 20
-22392.37978165999
 10
-880.0738825199859
 20
-22392.3047084178
 10
-876.4897760746734
 20
-22392.27943986312
  0
ARC
  5
B2
330
2
100
AcDbEntity
  8
Access .2
100
AcDbCircle
 10
-875.8415827152985
 20
-22763.7016200389
 30
0.0
 40
371.42041015625
100
AcDbArc
 50
87.43290995057213
 51
89.91598434773441
  0
ARC
  5
B3
330
2
100
AcDbEntity
  8
Access .2
100
AcDbCircle
 10
-875.8625788090485
 20
-22764.17842667952
 30
0.0
 40
371.8975524902344
100
AcDbArc
 50
87.43442629751745
 51
89.91303370423926
  0
ELLIPSE
  5
B4
330
2
100
AcDbEntity
  8
Access .2
100
AcDbEllipse
 10
-900.1309503910798
 20
-22595.92885392561
 30
0.0
 11
118.2216186523437
 21
88.52709960937501
 31
0.0
210
0.0
220
0.0
230
1.0
 40
0.8422167034274464
 41
0.1002415418624878
 42
0.3108353316783905
  0
ELLIPSE
  5
B5
330
2
100
AcDbEntity
  8
Access .2
100
AcDbEllipse
 10
-896.8708795902985
 20
-22590.95662492171
 30
0.0
 11
117.613037109375
 21
79.7767333984375
 31
0.0
210
0.0
220
0.0
230
1.0
 40
0.8532996340897767
 41
0.3562000691890716
 42
0.6345028877258301
  0
ARC
  5
B6
330
2
100
AcDbEntity
  8
Access .2
100
AcDbCircle
 10
-865.5666803715485
 20
-22570.01350968733
 30
0.0
 40
104.4921035766601
100
AcDbArc
 50
29.99233041796141
 51
43.6540854361339
  0
LWPOLYLINE
  5
B7
330
2
100
AcDbEntity
  8
Access .2
100
AcDbPolyline
 90
        7
 70
     0
 43
0.0
 10
-798.2051691410797
 20
-22401.87807267562
 10
-802.3892816899078
 20
-22400.57692521468
 10
-806.6036066410797
 20
-22399.37782853499
 10
-810.8429865238923
 20
-22398.27516740218
 10
-815.1043085453766
 20
-22397.27492326156
 10
-819.3858332035798
 20
-22396.38905900374
 10
-823.686431348111
 20
-22395.6289271678
  0
LWPOLYLINE
  5
B8
330
2
100
AcDbEntity
  8
Access .2
100
AcDbPolyline
 90
        5
 70
     0
 43
0.0
 10
-823.6797174809234
 20
-22395.58852189436
 10
-826.2511896488922
 20
-22395.20229142561
 10
-828.829497754361
 20
-22394.8613490428
 10
-831.8849787113922
 20
-22394.51222794905
 10
-834.9458917973297
 20
-22394.21315568343
  0
LWPOLYLINE
  5
B9
330
2
100
AcDbEntity
  8
Access .2
100
AcDbPolyline
 90
       12
 70
     0
 43
0.0
 10
-766.3997797367828
 20
-22416.47572892562
 10
-770.770659863736
 20
-22414.03163712874
 10
-775.1936640141266
 20
-22411.67897599593
 10
-779.6683039067048
 20
-22409.42360490218
 10
-781.9270319340485
 20
-22408.33998673811
 10
-784.2014459965485
 20
-22407.29091447249
 10
-786.4926447270172
 20
-22406.2802943553
 10
-788.8012995121735
 20
-22405.31166642562
 10
-791.022124707486
 20
-22404.42787736312
 10
-793.2587885258453
 20
-22403.58534806624
 10
-795.7243646977204
 20
-22402.70924943343
 10
-798.2051691410797
 20
-22401.87807267562
  0
LINE
  5
BA
330
2
100
AcDbEntity
  8
Access .2
100
AcDbLine
 10
-684.990142285611
 20
-22626.78566544905
 30
0.0
 11
-684.990142285611
 21
-22570.27943986312
 31
0.0
  0
LINE
  5
BB
330
2
100
AcDbEntity
  8
Access .1
  6
DASHSPACE
100
AcDbLine
 10
-645.9610590336579
 20
-22568.54067033187
 30
0.0
 11
-645.9610590336579
 21
-22616.04067033187
 31
0.0
  0
ARC
  5
BE
330
2
100
AcDbEntity
  8
Access .1
100
AcDbCircle
 10
-678.8930963871735
 20
-22650.6504115428
 30
0.0
 40
25.5
100
AcDbArc
 50
241.3521155028195
 51
103.8314361966545
  0
LWPOLYLINE
  5
BF
330
2
100
AcDbEntity
  8
Access .2
100
AcDbPolyline
 90
        3
 70
     0
 43
0.0
 10
-709.2367548344391
 20
-22741.0629481639
 10
-634.9587702152985
 20
-22737.99239152327
 10
-603.8419489262359
 20
-22736.69753068343
  0
LWPOLYLINE
  5
C0
330
2
100
AcDbEntity
  8
Access .2
100
AcDbPolyline
 90
        6
 70
     0
 43
0.0
 10
-716.5266413090485
 20
-22674.47322648421
 10
-717.9820856449859
 20
-22677.13564103499
 10
-719.8477472660798
 20
-22680.26302140608
 10
-721.8427729008453
 20
-22683.33815568343
 10
-723.9595026371735
 20
-22686.36049455062
 10
-724.3227533695954
 20
-22686.85848039046
  0
LWPOLYLINE
  5
C1
330
2
100
AcDbEntity
  8
Access .2
100
AcDbPolyline
 90
        6
 70
     0
 43
0.0
 10
-716.5629877445954
 20
-22674.53047746077
 10
-717.4345697758454
 20
-22676.14272111312
 10
-718.3401789067048
 20
-22677.73372453108
 10
-720.2427973149078
 20
-22680.8598231639
 10
-722.2557367680328
 20
-22683.9174403514
 10
-724.3704828617828
 20
-22686.90852921858
  0
ARC
  5
C2
330
2
100
AcDbEntity
  8
Access .2
100
AcDbCircle
 10
-841.1390070317047
 20
-22597.80843156233
 30
0.0
 40
147.0522308349609
100
AcDbArc
 50
309.8161973376765
 51
314.4049856560197
  0
ARC
  5
C3
330
2
100
AcDbEntity
  8
Access .2
100
AcDbCircle
 10
-830.2076105473297
 20
-22610.80159562483
 30
0.0
 40
130.0720825195312
100
AcDbArc
 50
307.577755462139
 51
309.785800031919
  0
ARC
  5
C4
330
2
100
AcDbEntity
  8
Access .2
100
AcDbCircle
 10
-826.877105176236
 20
-22611.50691789046
 30
0.0
 40
127.2607192993164
100
AcDbArc
 50
317.6754592546716
 51
321.2315859949825
  0
ARC
  5
C5
330
2
100
AcDbEntity
  8
Access .2
100
AcDbCircle
 10
-822.2456659672516
 20
-22617.79610246077
 30
0.0
 40
119.6146850585937
100
AcDbArc
 50
314.6384289552289
 51
316.4332607978447
  0
LINE
  5
C6
330
2
100
AcDbEntity
  8
Access .2
 48
0.0159101001622377
100
AcDbLine
 10
-735.2670587895172
 20
-22699.84755509749
 30
0.0
 11
-734.8273615238922
 21
-22699.38747208968
 31
0.0
  0
ARC
  5
C7
330
2
100
AcDbEntity
  8
Access .2
100
AcDbCircle
 10
-810.772368848111
 20
-22628.72694962874
 30
0.0
 40
103.7677307128906
100
AcDbArc
 50
316.4403312221978
 51
318.4325552788203
  0
LINE
  5
C8
330
2
100
AcDbEntity
  8
Access .2
 48
0.0177123492540475
100
AcDbLine
 10
-735.7589716313141
 20
-22700.3574427928
 30
0.0
 11
-735.2670587895172
 21
-22699.84755509749
 31
0.0
  0
LINE
  5
C9
330
2
100
AcDbEntity
  8
Access .2
 48
0.0054081255754647
100
AcDbLine
 10
-735.758696973111
 20
-22700.35719865218
 30
0.0
 11
-735.5962213871735
 21
-22700.21437638655
 31
0.0
  0
ARC
  5
CA
330
2
100
AcDbEntity
  8
Access .2
100
AcDbCircle
 10
-832.383208691861
 20
-22606.56166642561
 30
0.0
 40
134.6617126464844
100
AcDbArc
 50
316.4232167671726
 51
317.697221486431
  0
ARC
  5
CB
330
2
100
AcDbEntity
  8
Access .2
100
AcDbCircle
 10
-825.5979303715484
 20
-22612.44161027327
 30
0.0
 40
125.6765518188476
100
AcDbArc
 50
321.1992596778399
 51
323.6916013780068
  0
ARC
  5
CC
330
2
100
AcDbEntity
  8
Access .2
100
AcDbCircle
 10
-821.4303278324859
 20
-22615.91438859359
 30
0.0
 40
120.2538757324218
100
AcDbArc
 50
321.2438754227705
 51
323.8164981467119
  0
LINE
  5
CD
330
2
100
AcDbEntity
  8
Access .2
 48
0.1582244269134573
100
AcDbLine
 10
-715.5607294438141
 20
-22741.31453507796
 30
0.0
 11
-709.2367548344391
 21
-22741.0629481639
 31
0.0
  0
LINE
  5
CE
330
2
100
AcDbEntity
  8
Access .2
 48
0.3131523151989954
100
AcDbLine
 10
-703.005279004361
 20
-22629.78566544906
 30
0.0
 11
-690.4791864750641
 21
-22629.78426164046
 31
0.0
  0
LINE
  5
CF
330
2
100
AcDbEntity
  8
Access .1
 48
0.3323173522949219
100
AcDbLine
 10
-701.6357721684235
 20
-22650.6504115428
 30
0.0
 11
-688.3430780766266
 21
-22650.6504115428
 31
0.0
  0
LINE
  5
D0
330
2
100
AcDbEntity
  8
Access .1
 48
0.366839599609375
100
AcDbLine
 10
-690.7695001957672
 20
-22630.0004481639
 30
0.0
 11
-705.4430841801422
 21
-22630.0004481639
 31
0.0
  0
LINE
  5
D1
330
2
100
AcDbEntity
  8
Access .1
 48
0.3323173522949219
100
AcDbLine
 10
-701.6357721684235
 20
-22630.0004481639
 30
0.0
 11
-688.3430780766266
 21
-22630.0004481639
 31
0.0
  0
ARC
  5
D2
330
2
100
AcDbEntity
  8
Access .1
100
AcDbCircle
 10
-678.8930963871735
 20
-22650.6504115428
 30
0.0
 40
25.5
100
AcDbArc
 50
198.2687419352259
 51
241.3521155028195
  0
LINE
  5
D3
330
2
100
AcDbEntity
  8
Access .2
 48
0.3131423969861671
100
AcDbLine
 10
-703.0048822758454
 20
-22629.78566544906
 30
0.0
 11
-690.4791864750641
 21
-22629.78426164046
 31
0.0
  0
ARC
  5
D4
330
2
100
AcDbEntity
  8
Access .2
100
AcDbCircle
 10
247.703705370639
 20
-22637.30263322249
 30
0.0
 40
957.3986206054687
100
AcDbArc
 50
179.8255209984328
 51
180.1416631346068
  0
LINE
  5
D5
330
2
100
AcDbEntity
  8
Access .1
 48
0.4073944091796875
100
AcDbLine
 10
-706.4067377445954
 20
-22633.35445207015
 30
0.0
 11
-706.4067377445954
 21
-22649.65022843734
 31
0.0
  0
ARC
  5
D6
330
2
100
AcDbEntity
  8
Access .2
100
AcDbCircle
 10
247.627777636264
 20
-22637.27858537093
 30
0.0
 40
957.32275390625
100
AcDbArc
 50
179.8269416682639
 51
180.1430701443706
  0
LWPOLYLINE
  5
D7
330
2
100
AcDbEntity
  8
Access .2
100
AcDbPolyline
 90
        5
 70
     0
 43
0.0
 10
-709.8210443852203
 20
-22650.50960343733
 10
-710.0481562016266
 20
-22653.28743546858
 10
-710.3901056645172
 20
-22656.0141200389
 10
-710.6735529301422
 20
-22657.76015275374
 10
-711.0085749027985
 20
-22659.48470109358
  0
ARC
  5
D8
330
2
100
AcDbEntity
  8
Access .2
100
AcDbCircle
 10
-764.8269342777985
 20
-22648.05000871077
 30
0.0
 40
55.00863647460938
100
AcDbArc
 50
336.6973096192778
 51
347.7624636542864
  0
ARC
  5
D9
330
2
100
AcDbEntity
  8
Access .2
100
AcDbCircle
 10
-777.4805292485016
 20
-22642.53725236311
 30
0.0
 40
68.81294250488281
100
AcDbArc
 50
332.3483057145528
 51
336.6533868349958
  0
ARC
  5
DA
330
2
100
AcDbEntity
  8
Access .2
100
AcDbCircle
 10
-779.1628412602204
 20
-22641.59389298812
 30
0.0
 40
70.73577880859375
100
AcDbArc
 50
332.2491093955454
 51
334.7466459206627
  0
ARC
  5
DB
330
2
100
AcDbEntity
  8
Access .2
100
AcDbCircle
 10
-768.8106684086578
 20
-22646.39925187483
 30
0.0
 40
59.32105255126953
100
AcDbArc
 50
334.6781198075732
 51
336.7550870708139
  0
LINE
  5
DC
330
2
100
AcDbEntity
  8
Access .2
 48
0.0057740220047754
100
AcDbLine
 10
-711.0567011235016
 20
-22659.71059220686
 30
0.0
 11
-711.0085749027985
 21
-22659.48470109358
 31
0.0
  0
ARC
  5
DD
330
2
100
AcDbEntity
  8
Access .2
100
AcDbCircle
 10
-795.6029047367828
 20
-22645.79372208968
 30
0.0
 40
85.91203308105468
100
AcDbArc
 50
356.8533082846594
 51
359.6036790168867
  0
ARC
  5
DE
330
2
100
AcDbEntity
  8
Access .2
100
AcDbCircle
 10
-947.6755670902985
 20
-22644.02687638655
 30
0.0
 40
237.9954071044922
100
AcDbArc
 50
359.4315813595581
 51
0.1006118806354921
  0
ARC
  5
DF
330
2
100
AcDbEntity
  8
Access .2
100
AcDbCircle
 10
-2294.600737988736
 20
-22646.25575822249
 30
0.0
 40
1584.921997070312
100
AcDbArc
 50
0.0956825014067863
 51
0.2381115402618597
  0
LINE
  5
E0
330
2
100
AcDbEntity
  8
Access .1
 48
0.0949378967285156
100
AcDbLine
 10
-705.4332880375641
 20
-22650.6504115428
 30
0.0
 11
-701.6357721684235
 21
-22650.6504115428
 31
0.0
  0
LWPOLYLINE
  5
E1
330
2
100
AcDbEntity
  8
Access .1
100
AcDbPolyline
 90
        8
 70
     0
 43
0.0
 10
-706.4067377445954
 20
-22649.65022843734
 10
-706.3963007328766
 20
-22649.98988908187
 10
-706.3703913090485
 20
-22650.14955705062
 10
-706.2846979496734
 20
-22650.36043351546
 10
-706.0740351078766
 20
-22650.55342667952
 10
-705.9293207524079
 20
-22650.60896867171
 10
-705.6037897465484
 20
-22650.64882462874
 10
-705.4383234379547
 20
-22650.65022843733
  0
LINE
  5
E2
330
2
100
AcDbEntity
  8
Access .1
 48
0.0000381469726563
100
AcDbLine
 10
-706.7735590336578
 20
-22649.0287684764
 30
0.0
 11
-706.7735590336578
 21
-22649.02724259749
 31
0.0
  0
LINE
  5
E3
330
2
100
AcDbEntity
  8
Access .1
 48
0.0005558724708114
100
AcDbLine
 10
-703.1077875492829
 20
-22658.64406388655
 30
0.0
 11
-703.1147455570954
 21
-22658.62294572249
 31
0.0
  0
ARC
  5
E4
330
2
100
AcDbEntity
  8
Access .1
100
AcDbCircle
 10
-678.8930963871735
 20
-22650.6504115428
 30
0.0
 40
25.5
100
AcDbArc
 50
196.3283137307166
 51
198.2183086315713
  0
LINE
  5
E5
330
2
100
AcDbEntity
  8
Access .1
 48
0.0005673828420458
100
AcDbLine
 10
-703.3645929692047
 20
-22657.81953996077
 30
0.0
 11
-703.3709406254547
 21
-22657.79775040999
 31
0.0
  0
ARC
  5
E6
330
2
100
AcDbEntity
  8
Access .1
100
AcDbCircle
 10
-678.8930963871735
 20
-22650.6504115428
 30
0.0
 40
25.5
100
AcDbArc
 50
180.0000496324717
 51
196.27732048001
  0
LINE
  5
E7
330
2
100
AcDbEntity
  8
Access .1
 48
0.001654052734375
100
AcDbLine
 10
-705.3769220707672
 20
-22650.6504115428
 30
0.0
 11
-705.4430841801422
 21
-22650.6504115428
 31
0.0
  0
LINE
  5
E8
330
2
100
AcDbEntity
  8
Access .1
 48
0.0002449035644531
100
AcDbLine
 10
-705.4332880375641
 20
-22650.6504115428
 30
0.0
 11
-705.4430841801422
 21
-22650.6504115428
 31
0.0
  0
LINE
  5
E9
330
2
100
AcDbEntity
  8
Access .2
 48
0.1421440125248815
100
AcDbLine
 10
-708.6912531254547
 20
-22629.78548234359
 30
0.0
 11
-703.0054926274078
 21
-22629.78566544906
 31
0.0
  0
LINE
  5
EA
330
2
100
AcDbEntity
  8
Access .2
 48
0.142153930737767
100
AcDbLine
 10
-708.6912531254547
 20
-22629.78548234359
 30
0.0
 11
-703.0050958988923
 21
-22629.78566544906
 31
0.0
  0
ARC
  5
EB
330
2
100
AcDbEntity
  8
Access .2
100
AcDbCircle
 10
-1572.197783887173
 20
-22632.82240861312
 30
0.0
 40
862.5088500976563
100
AcDbArc
 50
359.8960611032388
 51
0.1352536547404792
  0
LINE
  5
EC
330
2
100
AcDbEntity
  8
Access .2
 48
0.0007218197543402
100
AcDbLine
 10
-708.720122754361
 20
-22629.78590958968
 30
0.0
 11
-708.6912531254547
 21
-22629.78548234359
 31
0.0
  0
LINE
  5
ED
330
2
100
AcDbEntity
  8
Access .2
 48
0.0088470664588292
100
AcDbLine
 10
-709.6900934574859
 20
-22632.27522843734
 30
0.0
 11
-709.6893305180328
 21
-22631.9213466014
 31
0.0
  0
LINE
  5
EE
330
2
100
AcDbEntity
  8
Access .2
 48
0.0018131687489038
100
AcDbLine
 10
-708.7637323735016
 20
-22629.78810685531
 30
0.0
 11
-708.6912531254547
 21
-22629.78548234359
 31
0.0
  0
LINE
  5
EF
330
2
100
AcDbEntity
  8
Access .2
 48
0.004759216553204
100
AcDbLine
 10
-709.689879834439
 20
-22631.9213466014
 30
0.0
 11
-709.6899408695954
 21
-22631.73097794906
 31
0.0
  0
LINE
  5
F0
330
2
100
AcDbEntity
  8
Access .2
 48
0.0236221510605723
100
AcDbLine
 10
-709.6899103520172
 20
-22631.73097794906
 30
0.0
 11
-709.6911310551422
 21
-22630.78609269515
 31
0.0
  0
ARC
  5
F1
330
2
100
AcDbEntity
  8
Access .2
100
AcDbCircle
 10
-708.6908258793609
 20
-22630.78554337874
 30
0.0
 40
1.000086426734924
100
AcDbArc
 50
94.27064648712038
 51
180.0461907455004
  0
ARC
  5
F2
330
2
100
AcDbEntity
  8
Access .2
100
AcDbCircle
 10
-1242.148284375455
 20
-22633.03316300765
 30
0.0
 40
532.4594116210938
100
AcDbArc
 50
359.8543197941883
 51
0.0815589962574986
  0
LINE
  5
F3
330
2
100
AcDbEntity
  8
Access .1
 48
0.0949378967285156
100
AcDbLine
 10
-705.4332880375641
 20
-22630.0004481639
 30
0.0
 11
-701.6357721684235
 21
-22630.0004481639
 31
0.0
  0
LINE
  5
F4
330
2
100
AcDbEntity
  8
Access .1
 48
0.0002449035644531
100
AcDbLine
 10
-705.4332880375641
 20
-22630.0004481639
 30
0.0
 11
-705.4430841801422
 21
-22630.0004481639
 31
0.0
  0
LINE
  5
F5
330
2
100
AcDbEntity
  8
Access .1
 48
0.0002449035644531
100
AcDbLine
 10
-705.4430841801422
 20
-22630.0004481639
 30
0.0
 11
-705.4332880375641
 21
-22630.0004481639
 31
0.0
  0
LWPOLYLINE
  5
F6
330
2
100
AcDbEntity
  8
Access .1
100
AcDbPolyline
 90
        7
 70
     0
 43
0.0
 10
-706.4067377445954
 20
-22631.0004481639
 10
-706.3855585453766
 20
-22630.66524308577
 10
-706.3101801274078
 20
-22630.43080705062
 10
-706.1722101567047
 20
-22630.23525040999
 10
-705.9778131840484
 20
-22630.09425919905
 10
-705.7535395024078
 20
-22630.02089494124
 10
-705.4332880375641
 20
-22630.0004481639
  0
LINE
  5
F7
330
2
100
AcDbEntity
  8
Access .1
 48
0.0583282470703125
100
AcDbLine
 10
-706.4067377445954
 20
-22633.33357804671
 30
0.0
 11
-706.4067377445954
 21
-22631.0004481639
 31
0.0
  0
LINE
  5
F8
330
2
100
AcDbEntity
  8
Access .1
 48
0.0000503540039063
100
AcDbLine
 10
-706.6063227055328
 20
-22633.85194962874
 30
0.0
 11
-706.6063227055328
 21
-22633.84993546858
 31
0.0
  0
LINE
  5
F9
330
2
100
AcDbEntity
  8
Access .1
 48
0.4662490844726563
100
AcDbLine
 10
-687.3430780766266
 20
-22649.6504115428
 30
0.0
 11
-687.3430780766266
 21
-22631.0004481639
 31
0.0
  0
LWPOLYLINE
  5
FA
330
2
100
AcDbEntity
  8
Access .1
100
AcDbPolyline
 90
        8
 70
     0
 43
0.0
 10
-687.3430780766266
 20
-22649.6504115428
 10
-687.3585810063141
 20
-22649.94765275374
 10
-687.391021191861
 20
-22650.09151261702
 10
-687.4834894535797
 20
-22650.29067033187
 10
-687.7144464848297
 20
-22650.51741593734
 10
-687.8619379399078
 20
-22650.58901017562
 10
-688.1863092777985
 20
-22650.64803117171
 10
-688.3430780766266
 20
-22650.6504115428
  0
LWPOLYLINE
  5
FB
330
2
100
AcDbEntity
  8
Access .2
100
AcDbPolyline
 90
       10
 70
     0
 43
0.0
 10
-684.9901117680328
 20
-22626.78334611312
 10
-685.0585626957673
 20
-22627.42098039046
 10
-685.2610468266266
 20
-22628.02950089827
 10
-685.5883783695953
 20
-22628.5810756053
 10
-686.0254511235016
 20
-22629.05049699202
 10
-686.5522455570953
 20
-22629.41634171859
 10
-687.1447748539703
 20
-22629.66182511702
 10
-687.7750238774078
 20
-22629.77559464827
 10
-688.4386896488922
 20
-22629.7836512889
 10
-690.4791864750641
 20
-22629.78426164046
  0
LWPOLYLINE
  5
FC
330
2
100
AcDbEntity
  8
Access .1
100
AcDbPolyline
 90
        8
 70
     0
 43
0.0
 10
-687.3430780766266
 20
-22631.0004481639
 10
-687.3585810063141
 20
-22630.70326798811
 10
-687.391021191861
 20
-22630.55934708968
 10
-687.4834894535797
 20
-22630.36018937484
 10
-687.7144464848297
 20
-22630.13344376937
 10
-687.8619379399078
 20
-22630.06184953109
 10
-688.1863092777985
 20
-22630.00288957015
 10
-688.3430780766266
 20
-22630.0004481639
  0
LINE
  5
FD
330
2
100
AcDbEntity
  8
Access .1
  6
DASHSPACE
100
AcDbLine
 10
-650.9610590336579
 20
-22621.04067033187
 30
0.0
 11
-670.9610590336579
 21
-22621.04067033187
 31
0.0
  0
ARC
  5
FE
330
2
100
AcDbEntity
  8
Access .1
  6
DASHSPACE
100
AcDbCircle
 10
-650.9610590336579
 20
-22616.04067033187
 30
0.0
 40
5.0
100
AcDbArc
 50
270.000000683243
 51
0.0
  0
ARC
  5
FF
330
2
100
AcDbEntity
  8
Access .1
100
AcDbCircle
 10
-678.8930963871735
 20
-22489.90846818343
 30
0.0
 40
25.5
100
AcDbArc
 50
256.1685638033455
 51
28.64789063011923
  0
ARC
  5
100
330
2
100
AcDbEntity
  8
Access .1
100
AcDbCircle
 10
-678.8930963871735
 20
-22489.90846818343
 30
0.0
 40
25.5
100
AcDbArc
 50
28.64789063011923
 51
161.7312580647741
  0
LWPOLYLINE
  5
101
330
2
100
AcDbEntity
  8
Access .2
100
AcDbPolyline
 90
        3
 70
     0
 43
0.0
 10
-709.2367548344391
 20
-22398.36208146468
 10
-634.9587702152985
 20
-22401.43251603499
 10
-603.8419489262359
 20
-22402.72743790999
  0
LWPOLYLINE
  5
102
330
2
100
AcDbEntity
  8
Access .2
100
AcDbPolyline
 90
        4
 70
     0
 43
0.0
 10
-709.2367548344391
 20
-22398.36208146468
 10
-666.9138178227203
 20
-22400.11647599593
 10
-635.6210626957672
 20
-22401.46352189436
 10
-603.7304682133453
 20
-22402.80409806624
  0
LWPOLYLINE
  5
103
330
2
100
AcDbEntity
  8
Access .2
100
AcDbPolyline
 90
        6
 70
     0
 43
0.0
 10
-716.5266413090485
 20
-22466.08565324202
 10
-717.9820856449859
 20
-22463.42323869124
 10
-719.8477472660798
 20
-22460.29585832015
 10
-721.8427729008453
 20
-22457.22072404281
 10
-723.9595026371735
 20
-22454.19838517562
 10
-724.3227533695954
 20
-22453.70039933577
  0
LWPOLYLINE
  5
104
330
2
100
AcDbEntity
  8
Access .2
100
AcDbPolyline
 90
        6
 70
     0
 43
0.0
 10
-716.5629877445954
 20
-22466.02840226546
 10
-717.4345697758454
 20
-22464.41615861312
 10
-718.3401789067048
 20
-22462.82515519515
 10
-720.2427973149078
 20
-22459.69905656234
 10
-722.2557367680328
 20
-22456.64143937483
 10
-724.3704828617828
 20
-22453.65035050765
  0
ARC
  5
105
330
2
100
AcDbEntity
  8
Access .2
100
AcDbCircle
 10
-866.2454523442047
 20
-22570.27297013655
 30
0.0
 40
105.2026977539062
100
AcDbArc
 50
354.5401068200663
 51
359.9964889730214
  0
ARC
  5
106
330
2
100
AcDbEntity
  8
Access .2
100
AcDbCircle
 10
-866.1357111332673
 20
-22570.28310197249
 30
0.0
 40
105.0930404663086
100
AcDbArc
 50
0.0019822158214878
 51
5.46405628818162
  0
ARC
  5
107
330
2
100
AcDbEntity
  8
Access .2
100
AcDbCircle
 10
-841.1390070317047
 20
-22542.7504481639
 30
0.0
 40
147.0522308349609
100
AcDbArc
 50
45.59501434398026
 51
50.18380266232353
  0
ARC
  5
108
330
2
100
AcDbEntity
  8
Access .2
100
AcDbCircle
 10
-830.2076105473297
 20
-22529.7572841014
 30
0.0
 40
130.0720825195312
100
AcDbArc
 50
50.21419996808099
 51
52.42224453786099
  0
ARC
  5
109
330
2
100
AcDbEntity
  8
Access .2
100
AcDbCircle
 10
-826.877105176236
 20
-22529.05196183577
 30
0.0
 40
127.2607192993164
100
AcDbArc
 50
38.76841400501746
 51
42.32454074532715
  0
LINE
  5
10A
330
2
100
AcDbEntity
  8
Access .2
 48
0.0159101001622377
100
AcDbLine
 10
-734.8273615238922
 20
-22441.17140763655
 30
0.0
 11
-735.2670587895172
 21
-22440.71132462874
 31
0.0
  0
ARC
  5
10B
330
2
100
AcDbEntity
  8
Access .2
100
AcDbCircle
 10
-810.7723078129547
 20
-22511.83186906234
 30
0.0
 40
103.7676391601562
100
AcDbArc
 50
41.56741324006026
 51
43.55966877780217
  0
LINE
  5
10C
330
2
100
AcDbEntity
  8
Access .2
 48
0.0177123492540475
100
AcDbLine
 10
-735.2670587895172
 20
-22440.71132462874
 30
0.0
 11
-735.7589716313141
 21
-22440.20143693343
 31
0.0
  0
LINE
  5
10D
330
2
100
AcDbEntity
  8
Access .2
 48
0.0054081255754647
100
AcDbLine
 10
-735.758696973111
 20
-22440.20168107405
 30
0.0
 11
-735.5962213871735
 21
-22440.34450333968
 31
0.0
  0
ARC
  5
10E
330
2
100
AcDbEntity
  8
Access .2
100
AcDbCircle
 10
-822.2456659672516
 20
-22522.76277726546
 30
0.0
 40
119.6146850585937
100
AcDbArc
 50
43.56673920215535
 51
45.36157104477103
  0
ARC
  5
10F
330
2
100
AcDbEntity
  8
Access .2
100
AcDbCircle
 10
-832.383208691861
 20
-22533.99721330062
 30
0.0
 40
134.6617126464844
100
AcDbArc
 50
42.30277851356901
 51
43.57678323282736
  0
ARC
  5
110
330
2
100
AcDbEntity
  8
Access .2
100
AcDbCircle
 10
-825.5979303715484
 20
-22528.11726945296
 30
0.0
 40
125.6765518188476
100
AcDbArc
 50
36.30839862199314
 51
38.8007403221601
  0
ARC
  5
111
330
2
100
AcDbEntity
  8
Access .2
100
AcDbCircle
 10
-821.4303278324859
 20
-22524.64449113265
 30
0.0
 40
120.2538757324218
100
AcDbArc
 50
36.18350185328806
 51
38.75612457722945
  0
LWPOLYLINE
  5
112
330
2
100
AcDbEntity
  8
Access .2
100
AcDbPolyline
 90
       10
 70
     0
 43
0.0
 10
-684.9901117680328
 20
-22513.77553361312
 10
-685.0585626957673
 20
-22513.13789933577
 10
-685.2610468266266
 20
-22512.52937882796
 10
-685.5883783695953
 20
-22511.97780412093
 10
-686.0254511235016
 20
-22511.50838273421
 10
-686.5522455570953
 20
-22511.14253800765
 10
-687.1447748539703
 20
-22510.89705460921
 10
-687.7750238774078
 20
-22510.78328507796
 10
-688.4386896488922
 20
-22510.77522843734
 10
-690.4791864750641
 20
-22510.77461808577
  0
ARC
  5
113
330
2
100
AcDbEntity
  8
Access .2
100
AcDbCircle
 10
-708.6908258793609
 20
-22509.77333634749
 30
0.0
 40
1.000075459480285
100
AcDbArc
 50
179.9526171572239
 51
265.7289193083612
  0
ARC
  5
114
330
2
100
AcDbEntity
  8
Access .2
100
AcDbCircle
 10
-708.6908258793609
 20
-22509.77333634749
 30
0.0
 40
1.000086426734924
100
AcDbArc
 50
179.9538192696679
 51
265.7293564927903
  0
LINE
  5
115
330
2
100
AcDbEntity
  8
Access .2
100
AcDbLine
 10
-684.990142285611
 20
-22570.27943986312
 30
0.0
 11
-684.990142285611
 21
-22513.77321427718
 31
0.0
  0
LINE
  5
116
330
2
100
AcDbEntity
  8
Access .2
 48
0.3131523151989954
100
AcDbLine
 10
-703.005279004361
 20
-22510.77321427718
 30
0.0
 11
-690.4791864750641
 21
-22510.77461808577
 31
0.0
  0
LINE
  5
117
330
2
100
AcDbEntity
  8
Access .1
 48
0.366839599609375
100
AcDbLine
 10
-690.7695001957672
 20
-22489.90846818343
 30
0.0
 11
-705.4430841801422
 21
-22489.90846818343
 31
0.0
  0
LINE
  5
118
330
2
100
AcDbEntity
  8
Access .1
 48
0.3323173522949219
100
AcDbLine
 10
-701.6357721684235
 20
-22510.55843156234
 30
0.0
 11
-688.3430780766266
 21
-22510.55843156234
 31
0.0
  0
LINE
  5
119
330
2
100
AcDbEntity
  8
Access .1
 48
0.3323173522949219
100
AcDbLine
 10
-701.6357721684235
 20
-22489.90846818343
 30
0.0
 11
-688.3430780766266
 21
-22489.90846818343
 31
0.0
  0
LINE
  5
11A
330
2
100
AcDbEntity
  8
Access .2
 48
0.3131340046522355
100
AcDbLine
 10
-703.0048822758454
 20
-22510.77321427718
 30
0.0
 11
-690.4795221684235
 21
-22510.77461808577
 31
0.0
  0
ARC
  5
11B
330
2
100
AcDbEntity
  8
Access .2
100
AcDbCircle
 10
-777.4805292485016
 20
-22498.02162736312
 30
0.0
 40
68.81294250488281
100
AcDbArc
 50
23.34661316500419
 51
27.65169428544716
  0
ARC
  5
11C
330
2
100
AcDbEntity
  8
Access .2
100
AcDbCircle
 10
-779.1628412602204
 20
-22498.96498673812
 30
0.0
 40
70.73577880859375
100
AcDbArc
 50
25.25335407933728
 51
27.75089060445464
  0
LINE
  5
11D
330
2
100
AcDbEntity
  8
Access .2
 48
0.1421440125248815
100
AcDbLine
 10
-708.6912531254547
 20
-22510.77339738265
 30
0.0
 11
-703.0054926274078
 21
-22510.77321427718
 31
0.0
  0
LINE
  5
11E
330
2
100
AcDbEntity
  8
Access .2
 48
0.142153930737767
100
AcDbLine
 10
-708.6912531254547
 20
-22510.77339738265
 30
0.0
 11
-703.0050958988923
 21
-22510.77321427718
 31
0.0
  0
LWPOLYLINE
  5
11F
330
2
100
AcDbEntity
  8
Access .2
100
AcDbPolyline
 90
        5
 70
     0
 43
0.0
 10
-709.8210443852203
 20
-22490.0492762889
 10
-710.0481562016266
 20
-22487.27144425765
 10
-710.3901056645172
 20
-22484.54475968733
 10
-710.6735529301422
 20
-22482.79872697249
 10
-711.0085749027985
 20
-22481.07417863265
  0
LINE
  5
120
330
2
100
AcDbEntity
  8
Access .2
 48
0.0007218197543402
100
AcDbLine
 10
-708.720122754361
 20
-22510.77297013655
 30
0.0
 11
-708.6912531254547
 21
-22510.77339738265
 31
0.0
  0
ARC
  5
121
330
2
100
AcDbEntity
  8
Access .2
100
AcDbCircle
 10
247.703705370639
 20
-22503.25624650374
 30
0.0
 40
957.3986206054687
100
AcDbArc
 50
179.8583332235039
 51
180.1744890201138
  0
ARC
  5
122
330
2
100
AcDbEntity
  8
Access .2
100
AcDbCircle
 10
-1572.197783887173
 20
-22507.73647111312
 30
0.0
 40
862.5088500976563
100
AcDbArc
 50
359.8647463452596
 51
0.1039388967611347
  0
LINE
  5
123
330
2
100
AcDbEntity
  8
Access .2
 48
0.0236221510605723
100
AcDbLine
 10
-709.6911310551422
 20
-22509.77278703108
 30
0.0
 11
-709.6899103520172
 21
-22508.82790177718
 31
0.0
  0
LINE
  5
124
330
2
100
AcDbEntity
  8
Access .2
 48
0.0018131687489038
100
AcDbLine
 10
-708.7637323735016
 20
-22510.77077287093
 30
0.0
 11
-708.6912531254547
 21
-22510.77339738265
 31
0.0
  0
LINE
  5
125
330
2
100
AcDbEntity
  8
Access .2
 48
0.004759216553204
100
AcDbLine
 10
-709.6899408695954
 20
-22508.82790177718
 30
0.0
 11
-709.689879834439
 21
-22508.63753312484
 31
0.0
  0
LINE
  5
126
330
2
100
AcDbEntity
  8
Access .2
 48
0.0088470664588292
100
AcDbLine
 10
-709.6893305180328
 20
-22508.63753312484
 30
0.0
 11
-709.6900934574859
 21
-22508.2836512889
 31
0.0
  0
ARC
  5
127
330
2
100
AcDbEntity
  8
Access .2
100
AcDbCircle
 10
-947.6755670902985
 20
-22496.53200333968
 30
0.0
 40
237.9954071044922
100
AcDbArc
 50
359.8993881193645
 51
0.5684186404418048
  0
ARC
  5
128
330
2
100
AcDbEntity
  8
Access .2
100
AcDbCircle
 10
-2294.600737988736
 20
-22494.30312150374
 30
0.0
 40
1584.921997070312
100
AcDbArc
 50
359.7618884597381
 51
359.9043174985932
  0
ARC
  5
129
330
2
100
AcDbEntity
  8
Access .2
100
AcDbCircle
 10
247.627777636264
 20
-22503.28029435531
 30
0.0
 40
957.32275390625
100
AcDbArc
 50
179.8569262139481
 51
180.1730546898412
  0
ARC
  5
12A
330
2
100
AcDbEntity
  8
Access .2
100
AcDbCircle
 10
-1242.148284375455
 20
-22507.52571671859
 30
0.0
 40
532.4594116210938
100
AcDbArc
 50
359.9184410037425
 51
0.1456802058117351
  0
ARC
  5
12B
330
2
100
AcDbEntity
  8
Access .2
100
AcDbCircle
 10
-795.6029047367828
 20
-22494.76515763655
 30
0.0
 40
85.91203308105468
100
AcDbArc
 50
0.3963209831132179
 51
3.146691715340525
  0
ARC
  5
12C
330
2
100
AcDbEntity
  8
Access .2
100
AcDbCircle
 10
-764.8269342777985
 20
-22492.50887101546
 30
0.0
 40
55.00863647460938
100
AcDbArc
 50
12.2375363457135
 51
23.3026903807222
  0
ARC
  5
12D
330
2
100
AcDbEntity
  8
Access .2
100
AcDbCircle
 10
-768.8106684086578
 20
-22494.1596278514
 30
0.0
 40
59.32105255126953
100
AcDbArc
 50
23.24491292918605
 51
25.32188019242679
  0
LINE
  5
12E
330
2
100
AcDbEntity
  8
Access .2
 48
0.0057740220047754
100
AcDbLine
 10
-711.0085749027985
 20
-22481.07417863265
 30
0.0
 11
-711.0567011235016
 21
-22480.84828751937
 31
0.0
  0
ARC
  5
12F
330
2
100
AcDbEntity
  8
Access .1
100
AcDbCircle
 10
-678.8930963871735
 20
-22489.90846818343
 30
0.0
 40
25.5
100
AcDbArc
 50
163.7226795199899
 51
179.9998547446714
  0
LINE
  5
130
330
2
100
AcDbEntity
  8
Access .1
 48
0.0949378967285156
100
AcDbLine
 10
-705.4332880375641
 20
-22510.55843156234
 30
0.0
 11
-701.6357721684235
 21
-22510.55843156234
 31
0.0
  0
LINE
  5
131
330
2
100
AcDbEntity
  8
Access .1
 48
0.0949378967285156
100
AcDbLine
 10
-705.4332880375641
 20
-22489.90846818343
 30
0.0
 11
-701.6357721684235
 21
-22489.90846818343
 31
0.0
  0
LINE
  5
132
330
2
100
AcDbEntity
  8
Access .1
 48
0.0583282470703125
100
AcDbLine
 10
-706.4067377445954
 20
-22509.55843156233
 30
0.0
 11
-706.4067377445954
 21
-22507.22530167952
 31
0.0
  0
LINE
  5
133
330
2
100
AcDbEntity
  8
Access .1
 48
0.4073944091796875
100
AcDbLine
 10
-706.4067377445954
 20
-22507.20442765608
 30
0.0
 11
-706.4067377445954
 21
-22490.9086512889
 31
0.0
  0
LWPOLYLINE
  5
134
330
2
100
AcDbEntity
  8
Access .1
100
AcDbPolyline
 90
        8
 70
     0
 43
0.0
 10
-706.4067377445954
 20
-22490.9086512889
 10
-706.3963007328766
 20
-22490.56899064437
 10
-706.3703913090485
 20
-22490.40932267562
 10
-706.2846979496734
 20
-22490.19844621077
 10
-706.0740351078766
 20
-22490.00545304671
 10
-705.9293207524079
 20
-22489.94991105452
 10
-705.6037897465484
 20
-22489.91005509749
 10
-705.4383234379547
 20
-22489.9086512889
  0
LWPOLYLINE
  5
135
330
2
100
AcDbEntity
  8
Access .1
100
AcDbPolyline
 90
        7
 70
     0
 43
0.0
 10
-706.4067377445954
 20
-22509.55843156233
 10
-706.3855585453766
 20
-22509.89363664046
 10
-706.3101801274078
 20
-22510.12807267561
 10
-706.1722101567047
 20
-22510.32362931624
 10
-705.9778131840484
 20
-22510.46462052718
 10
-705.7535395024078
 20
-22510.53798478499
 10
-705.4332880375641
 20
-22510.55843156234
  0
LINE
  5
136
330
2
100
AcDbEntity
  8
Access .1
 48
0.0002449035644531
100
AcDbLine
 10
-705.4430841801422
 20
-22510.55843156234
 30
0.0
 11
-705.4332880375641
 21
-22510.55843156234
 31
0.0
  0
LINE
  5
137
330
2
100
AcDbEntity
  8
Access .1
 48
0.0002449035644531
100
AcDbLine
 10
-705.4332880375641
 20
-22510.55843156234
 30
0.0
 11
-705.4430841801422
 21
-22510.55843156234
 31
0.0
  0
LINE
  5
138
330
2
100
AcDbEntity
  8
Access .1
 48
0.0002449035644531
100
AcDbLine
 10
-705.4332880375641
 20
-22489.90846818343
 30
0.0
 11
-705.4430841801422
 21
-22489.90846818343
 31
0.0
  0
LINE
  5
139
330
2
100
AcDbEntity
  8
Access .1
 48
0.0005673828420458
100
AcDbLine
 10
-703.3709406254547
 20
-22482.76112931624
 30
0.0
 11
-703.3645929692047
 21
-22482.73933976546
 31
0.0
  0
ARC
  5
13A
330
2
100
AcDbEntity
  8
Access .1
100
AcDbCircle
 10
-678.8930963871735
 20
-22489.90846818343
 30
0.0
 40
25.5
100
AcDbArc
 50
161.7816913684286
 51
163.6716862692833
  0
LINE
  5
13B
330
2
100
AcDbEntity
  8
Access .1
 48
0.0005558724708114
100
AcDbLine
 10
-703.1147455570954
 20
-22481.93593400374
 30
0.0
 11
-703.1077875492829
 21
-22481.91481583968
 31
0.0
  0
LINE
  5
13C
330
2
100
AcDbEntity
  8
Access .1
 48
0.0095159865976263
100
AcDbLine
 10
-693.8539423344391
 20
-22510.55843156234
 30
0.0
 11
-693.5440363285797
 21
-22510.77943986312
 31
0.0
  0
LWPOLYLINE
  5
13D
330
2
100
AcDbEntity
  8
Access .1
100
AcDbPolyline
 90
        8
 70
     0
 43
0.0
 10
-687.3430780766266
 20
-22509.55843156233
 10
-687.3585810063141
 20
-22509.85561173812
 10
-687.391021191861
 20
-22509.99953263655
 10
-687.4834894535797
 20
-22510.1986903514
 10
-687.7144464848297
 20
-22510.42543595687
 10
-687.8619379399078
 20
-22510.49703019515
 10
-688.1863092777985
 20
-22510.55599015609
 10
-688.3430780766266
 20
-22510.55843156234
  0
LINE
  5
13E
330
2
100
AcDbEntity
  8
Access .1
 48
0.4662490844726563
100
AcDbLine
 10
-687.3430780766266
 20
-22509.55843156233
 30
0.0
 11
-687.3430780766266
 21
-22490.90846818343
 31
0.0
  0
LWPOLYLINE
  5
13F
330
2
100
AcDbEntity
  8
Access .1
100
AcDbPolyline
 90
        8
 70
     0
 43
0.0
 10
-687.3430780766266
 20
-22490.90846818343
 10
-687.3585810063141
 20
-22490.61122697249
 10
-687.391021191861
 20
-22490.46736710921
 10
-687.4834894535797
 20
-22490.26820939437
 10
-687.7144464848297
 20
-22490.0414637889
 10
-687.8619379399078
 20
-22489.96986955062
 10
-688.1863092777985
 20
-22489.91084855452
 10
-688.3430780766266
 20
-22489.90846818343
  0
LINE
  5
140
330
2
100
AcDbEntity
  8
Access .2
 48
0.1582244269134573
100
AcDbLine
 10
-715.5607294438141
 20
-22398.11049455062
 30
0.0
 11
-709.2367548344391
 21
-22398.36208146468
 31
0.0
  0
LINE
  5
141
330
2
100
AcDbEntity
  8
Access .1
  6
DASHSPACE
100
AcDbLine
 10
-650.9610590336579
 20
-22516.04067033186
 30
0.0
 11
-670.9610590336579
 21
-22516.04067033186
 31
0.0
  0
LINE
  5
142
330
2
100
AcDbEntity
  8
Access .1
  6
DASHSPACE
100
AcDbLine
 10
-645.9610590336579
 20
-22568.54067033187
 30
0.0
 11
-645.9610590336579
 21
-22521.04067033187
 31
0.0
  0
ARC
  5
143
330
2
100
AcDbEntity
  8
Access .1
  6
DASHSPACE
100
AcDbCircle
 10
-650.9610590336579
 20
-22521.04067033187
 30
0.0
 40
5.0
100
AcDbArc
 50
0.0
 51
90.00000250446868
  0
LINE
  5
144
330
2
100
AcDbEntity
  8
Access .1
 48
0.4690414428710938
100
AcDbLine
 10
-430.1437677738922
 20
-22571.67946427718
 30
0.0
 11
-411.3821100590485
 21
-22571.67946427718
 31
0.0
  0
LINE
  5
145
330
2
100
AcDbEntity
  8
Access .1
 48
0.4743415832519532
100
AcDbLine
 10
-430.3557733891266
 20
-22569.67946427718
 30
0.0
 11
-411.3821100590485
 21
-22569.67946427718
 31
0.0
  0
LINE
  5
146
330
2
100
AcDbEntity
  8
Access .1
100
AcDbLine
 10
-430.1437677738922
 20
-22565.67946427718
 30
0.0
 11
-392.6204523442048
 21
-22565.67946427718
 31
0.0
  0
LINE
  5
147
330
2
100
AcDbEntity
  8
Access .1
100
AcDbLine
 10
-430.3557733891266
 20
-22567.67946427718
 30
0.0
 11
-392.4084467289704
 21
-22567.67946427718
 31
0.0
  0
LINE
  5
148
330
2
100
AcDbEntity
  8
Access .1
100
AcDbLine
 10
-431.3821100590485
 20
-22568.67946427718
 30
0.0
 11
-391.3821100590485
 21
-22568.67946427718
 31
0.0
  0
CIRCLE
  5
149
330
2
100
AcDbEntity
  8
Access .1
100
AcDbCircle
 10
-411.3821100590485
 20
-22568.67946427718
 30
0.0
 40
20.0
  0
CIRCLE
  5
14A
330
2
100
AcDbEntity
  8
Access .2
100
AcDbCircle
 10
-411.3821100590485
 20
-22568.67946427718
 30
0.0
 40
27.5
  0
LINE
  5
14B
330
2
100
AcDbEntity
  8
Access .2
100
AcDbLine
 10
-321.638335644986
 20
-22400.96376603499
 30
0.0
 11
-464.7693781254547
 21
-22400.68813126937
 31
0.0
  0
LINE
  5
14C
330
2
100
AcDbEntity
  8
Access .2
100
AcDbLine
 10
-465.4147943852203
 20
-22735.81874650374
 30
0.0
 11
-322.2837213871735
 21
-22736.09438126936
 31
0.0
  0
LINE
  5
14D
330
2
100
AcDbEntity
  8
Access .2
100
AcDbLine
 10
-471.403228223111
 20
-22729.80739396468
 30
0.0
 11
-470.780913769986
 21
-22406.67641251937
 31
0.0
  0
ARC
  5
14E
330
2
100
AcDbEntity
  8
Access .2
100
AcDbCircle
 10
-465.4034113285797
 20
-22729.81886857405
 30
0.0
 40
5.999841690063476
100
AcDbArc
 50
179.8901755655954
 51
269.8912913922766
  0
ARC
  5
14F
330
2
100
AcDbEntity
  8
Access .1
100
AcDbCircle
 10
-411.3821100590485
 20
-22568.67946427718
 30
0.0
 40
19.0
100
AcDbArc
 50
183.0169678939556
 51
189.0847164277104
  0
ARC
  5
150
330
2
100
AcDbEntity
  8
Access .1
100
AcDbCircle
 10
-411.3821100590485
 20
-22568.67946427718
 30
0.0
 40
19.0
100
AcDbArc
 50
170.9152802001456
 51
176.9830421240471
  0
ARC
  5
151
330
2
100
AcDbEntity
  8
Access .2
100
AcDbCircle
 10
-464.7810968754547
 20
-22406.68800919905
 30
0.0
 40
5.999841690063476
100
AcDbArc
 50
89.88805570309976
 51
179.8891510392805
  0
LINE
  5
152
330
2
100
AcDbEntity
  8
Access .2
100
AcDbLine
 10
-315.6523126957673
 20
-22408.23195451155
 30
0.0
 11
-316.2698053715485
 21
-22728.84938615218
 31
0.0
  0
ARC
  5
153
330
2
100
AcDbEntity
  8
Access .2
100
AcDbCircle
 10
-322.2722467777985
 20
-22730.09438126937
 30
0.0
 40
6.000032424926757
100
AcDbArc
 50
269.8900246214305
 51
359.890009000012
  0
ARC
  5
154
330
2
100
AcDbEntity
  8
Access .2
100
AcDbCircle
 10
-327.5321955082672
 20
-22729.7670497264
 30
0.0
 40
11.26424026489257
100
AcDbArc
 50
354.3495119225347
 51
358.2764460241989
  0
LINE
  5
155
330
2
100
AcDbEntity
  8
Access .2
 48
0.0043487615752587
100
AcDbLine
 10
-316.271880566861
 20
-22729.93190568343
 30
0.0
 11
-316.2721857426423
 21
-22730.10585587874
 31
0.0
  0
LINE
  5
156
330
2
100
AcDbEntity
  8
Access .2
 48
0.0270630380082007
100
AcDbLine
 10
-316.271880566861
 20
-22729.93190568343
 30
0.0
 11
-316.2698053715485
 21
-22728.84938615218
 31
0.0
  0
LINE
  5
157
330
2
100
AcDbEntity
  8
Access .1
 48
0.05
100
AcDbLine
 10
-411.3821100590485
 20
-22569.67946427718
 30
0.0
 11
-411.3821100590485
 21
-22571.67946427718
 31
0.0
  0
ARC
  5
158
330
2
100
AcDbEntity
  8
Access .1
100
AcDbCircle
 10
-411.3821100590485
 20
-22568.67946427718
 30
0.0
 40
19.0
100
AcDbArc
 50
3.016961286185389
 51
9.084719799854342
  0
ARC
  5
159
330
2
100
AcDbEntity
  8
Access .2
100
AcDbCircle
 10
-321.6499323246735
 20
-22406.96376603499
 30
0.0
 40
6.000031948089599
100
AcDbArc
 50
359.8893150502132
 51
89.88930563197905
  0
LINE
  5
15A
330
2
100
AcDbEntity
  8
Access .2
 48
0.0270660897604064
100
AcDbLine
 10
-315.6523126957673
 20
-22408.23195451155
 30
0.0
 11
-315.6502375004547
 21
-22407.14931290999
 31
0.0
  0
ENDSEC
  0
SECTION
  2
OBJECTS
  0
DICTIONARY
  5
9
330
0
100
AcDbDictionary
281
     1
  3
ACAD_COLOR
350
3B
  3
ACAD_GROUP
350
36
  3
ACAD_LAYOUT
350
F
  3
ACAD_MATERIAL
350
B
  3
ACAD_MLINESTYLE
350
37
  3
ACAD_PLOTSETTINGS
350
38
  3
ACAD_PLOTSTYLENAME
350
8
  3
ACAD_TABLESTYLE
350
3C
  3
ACAD_VISUALSTYLE
350
28
  3
AcDbVariableDictionary
350
174
  0
DICTIONARY
  5
29
330
25
100
AcDbDictionary
280
     1
281
     1
  0
DICTIONARY
  5
18
330
17
100
AcDbDictionary
280
     1
281
     1
  3
ACAD_LAYERFILTERS
360
19
  3
ACAD_LAYERSTATES
360
1A
  3
ACLYDICTIONARY
360
1B
  0
DICTIONARY
  5
3
330
2
100
AcDbDictionary
280
     1
281
     1
  3
ACAD_SORTENTS
360
15B
  0
DICTIONARY
  5
3B
102
{ACAD_REACTORS
330
9
102
}
330
9
100
AcDbDictionary
281
     1
  0
DICTIONARY
  5
36
102
{ACAD_REACTORS
330
9
102
}
330
9
100
AcDbDictionary
281
     1
  0
DICTIONARY
  5
F
102
{ACAD_REACTORS
330
9
102
}
330
9
100
AcDbDictionary
281
     1
  3
Layout1
350
14
  3
Model
350
E
  0
DICTIONARY
  5
B
102
{ACAD_REACTORS
330
9
102
}
330
9
100
AcDbDictionary
281
     1
  3
ByBlock
350
3A
  3
ByLayer
350
39
  3
Global
350
A
  0
DICTIONARY
  5
37
102
{ACAD_REACTORS
330
9
102
}
330
9
100
AcDbDictionary
281
     1
  3
Standard
350
3F
  0
DICTIONARY
  5
38
102
{ACAD_REACTORS
330
9
102
}
330
9
100
AcDbDictionary
281
     1
  0
ACDBDICTIONARYWDFLT
  5
8
102
{ACAD_REACTORS
330
9
102
}
330
9
100
AcDbDictionary
281
     1
  3
Normal
350
7
100
AcDbDictionaryWithDefault
340
7
  0
DICTIONARY
  5
3C
102
{ACAD_REACTORS
330
9
102
}
330
9
100
AcDbDictionary
281
     1
  3
Standard
350
40
  0
DICTIONARY
  5
28
102
{ACAD_REACTORS
330
9
102
}
330
9
100
AcDbDictionary
281
     1
  3
2dWireframe
350
27
  3
3D Hidden
350
17C
  3
3dWireframe
350
42
  3
Basic
350
17B
  3
Brighten
350
17F
  3
ColorChange
350
183
  3
Conceptual
350
17D
  3
Dim
350
17E
  3
Facepattern
350
182
  3
Flat
350
177
  3
FlatWithEdges
350
178
  3
Gouraud
350
179
  3
GouraudWithEdges
350
17A
  3
Linepattern
350
181
  3
Realistic
350
41
  3
Thicken
350
180
  0
DICTIONARY
  5
174
102
{ACAD_REACTORS
330
9
102
}
330
9
100
AcDbDictionary
281
     1
  3
CTABLESTYLE
350
175
  0
DICTIONARY
  5
19
102
{ACAD_REACTORS
330
18
102
}
330
18
100
AcDbDictionary
281
     1
  0
DICTIONARY
  5
1A
102
{ACAD_REACTORS
330
18
102
}
330
18
100
AcDbDictionary
281
     1
  0
DICTIONARY
  5
1B
102
{ACAD_REACTORS
330
18
102
}
330
18
100
AcDbDictionary
281
     1
1001
ACAD
1000
<All
  0
SORTENTSTABLE
  5
15B
102
{ACAD_REACTORS
330
3
102
}
330
3
100
AcDbSortentsTable
330
2
  0
LAYOUT
  5
14
102
{ACAD_XDICTIONARY
360
15
102
}
102
{ACAD_REACTORS
330
F
102
}
330
F
100
AcDbPlotSettings
  1

  2
none_device
  4
ISO_A4_(210.00_x_297.00_MM)
  6

 40
7.5
 41
20.0
 42
7.5
 43
20.0
 44
210.0
 45
297.0
 46
0.0
 47
0.0
 48
0.0
 49
0.0
140
0.0
141
0.0
142
1.0
143
1.0
 70
   688
 72
     1
 73
     1
 74
     5
  7
LCG Normal.ctb
 75
    16
147
1.0
 76
     0
 77
     2
 78
   300
148
0.0
149
0.0
100
AcDbLayout
  1
Layout1
 70
     1
 71
     1
 10
-20.0
 20
-7.5
 11
277.0
 21
202.5
 12
0.0
 22
0.0
 32
0.0
 14
25.69999999999999
 24
19.5
 34
0.0
 15
231.3
 25
175.5
 35
0.0
146
0.0
 13
0.0
 23
0.0
 33
0.0
 16
1.0
 26
0.0
 36
0.0
 17
0.0
 27
1.0
 37
0.0
 76
     0
330
11
1001
ACAD_PSEXT
1000
None
1000
None
1000
Not applicable
1000
The layout will not be plotted unless a new plotter configuration name is selected.
1070
     0
  0
LAYOUT
  5
E
102
{ACAD_REACTORS
330
F
102
}
330
F
100
AcDbPlotSettings
  1

  2
Adobe PDF
  4
A4
  6

 40
3.174999952316284
 41
3.174999952316284
 42
3.175003051757812
 43
3.17498779296875
 44
209.9733276367187
 45
297.0318298339844
 46
0.0
 47
69.22155763539213
 48
4459.497861080963
 49
1641.385426523477
140
6605.242672745349
141
4249.506158453842
142
1.0
143
12.49089035128825
 70
 11956
 72
     1
 73
     0
 74
     1
  7
LCG Normal.ctb
 75
     0
147
0.0800583442714206
 76
     0
 77
     2
 78
   300
148
2615.995732776032
149
24018.58509356883
100
AcDbLayout
  1
Model
 70
     1
 71
     0
 10
0.0
 20
0.0
 11
12.0
 21
9.0
 12
0.0
 22
0.0
 32
0.0
 14
0.0
 24
0.0
 34
0.0
 15
0.0
 25
0.0
 35
0.0
146
0.0
 13
0.0
 23
0.0
 33
0.0
 16
1.0
 26
0.0
 36
0.0
 17
0.0
 27
1.0
 37
0.0
 76
     0
330
2
331
26
1001
ACAD_PSEXT
1000
Adobe PDF
1000
Adobe PDF Converter
1000
Documents\*.pdf
1000

1070
     0
  0
MATERIAL
  5
3A
102
{ACAD_REACTORS
330
B
102
}
330
B
100
AcDbMaterial
  1
ByBlock
  0
MATERIAL
  5
39
102
{ACAD_REACTORS
330
B
102
}
330
B
100
AcDbMaterial
  1
ByLayer
  0
MATERIAL
  5
A
102
{ACAD_REACTORS
330
B
102
}
330
B
100
AcDbMaterial
  1
Global
  0
MLINESTYLE
  5
3F
102
{ACAD_REACTORS
330
37
102
}
330
37
100
AcDbMlineStyle
  2
STANDARD
 70
     0
  3

 62
   256
 51
90.0
 52
90.0
 71
     2
 49
0.5
 62
   256
  6
BYLAYER
 49
-0.5
 62
   256
  6
BYLAYER
  0
ACDBPLACEHOLDER
  5
7
102
{ACAD_REACTORS
330
8
102
}
330
8
  0
TABLESTYLE
  5
40
102
{ACAD_REACTORS
330
3C
102
}
330
3C
100
AcDbTableStyle
  3
Standard
 70
     0
 71
     0
 40
1.5
 41
1.5
280
     0
281
     0
  7
Standard
140
4.5
170
     2
 62
     0
 63
     7
283
     0
 90
        4
 91
        0
  1

274
    -2
284
     1
 64
     0
275
    -2
285
     1
 65
     0
276
    -2
286
     1
 66
     0
277
    -2
287
     1
 67
     0
278
    -2
288
     1
 68
     0
279
    -2
289
     1
 69
     0
  7
Standard
140
6.0
170
     5
 62
     0
 63
     7
283
     0
 90
        4
 91
        0
  1

274
    -2
284
     1
 64
     0
275
    -2
285
     1
 65
     0
276
    -2
286
     1
 66
     0
277
    -2
287
     1
 67
     0
278
    -2
288
     1
 68
     0
279
    -2
289
     1
 69
     0
  7
Standard
140
4.5
170
     5
 62
     0
 63
     7
283
     0
 90
        4
 91
        0
  1

274
    -2
284
     1
 64
     0
275
    -2
285
     1
 65
     0
276
    -2
286
     1
 66
     0
277
    -2
287
     1
 67
     0
278
    -2
288
     1
 68
     0
279
    -2
289
     1
 69
     0
  0
VISUALSTYLE
  5
27
102
{ACAD_REACTORS
330
28
102
}
330
28
100
AcDbVisualStyle
  2
2dWireframe
 70
     4
 71
     0
 72
     2
 73
     0
 90
        0
 40
-0.6
 41
-30.0
 62
     5
 63
     7
421
 16777215
 74
     1
 91
        4
 64
     7
 65
   257
 75
     1
175
     1
 42
1.0
 92
        0
 66
   257
 43
1.0
 76
     1
 77
     6
 78
     2
 67
     7
 79
     5
170
     0
171
     0
290
     0
174
     0
 93
        1
 44
0.0
173
     0
291
     0
 45
0.0
  0
VISUALSTYLE
  5
17C
102
{ACAD_REACTORS
330
28
102
}
330
28
100
AcDbVisualStyle
  2
3D Hidden
 70
     6
 71
     1
 72
     2
 73
     2
 90
        0
 40
-0.6
 41
-30.0
 62
     5
 63
     7
421
 16777215
 74
     2
 91
        2
 64
     7
 65
   257
 75
     2
175
     1
 42
40.0
 92
        0
 66
   257
 43
1.0
 76
     1
 77
     6
 78
     2
 67
     7
 79
     3
170
     0
171
     0
290
     0
174
     0
 93
        1
 44
0.0
173
     0
291
     0
 45
0.0
  0
VISUALSTYLE
  5
42
102
{ACAD_REACTORS
330
28
102
}
330
28
100
AcDbVisualStyle
  2
3dWireframe
 70
     5
 71
     0
 72
     2
 73
     0
 90
        0
 40
-0.6
 41
-30.0
 62
     5
 63
     7
421
 16777215
 74
     1
 91
        4
 64
     7
 65
   257
 75
     1
175
     1
 42
1.0
 92
        0
 66
   257
 43
1.0
 76
     1
 77
     6
 78
     2
 67
     7
 79
     5
170
     0
171
     0
290
     0
174
     0
 93
        1
 44
0.0
173
     0
291
     0
 45
0.0
  0
VISUALSTYLE
  5
17B
102
{ACAD_REACTORS
330
28
102
}
330
28
100
AcDbVisualStyle
  2
Basic
 70
     7
 71
     1
 72
     0
 73
     1
 90
        0
 40
-0.6
 41
-30.0
 62
     5
 63
     7
421
 16777215
 74
     0
 91
        4
 64
     7
 65
   257
 75
     1
175
     1
 42
1.0
 92
        8
 66
     7
 43
1.0
 76
     1
 77
     6
 78
     2
 67
     7
 79
     5
170
     0
171
     0
290
     0
174
     0
 93
        1
 44
0.0
173
     0
291
     1
 45
0.0
  0
VISUALSTYLE
  5
17F
102
{ACAD_REACTORS
330
28
102
}
330
28
100
AcDbVisualStyle
  2
Brighten
 70
    12
 71
     2
 72
     2
 73
     0
 90
        0
 40
-0.6
 41
-30.0
 62
     5
 63
     7
421
 16777215
 74
     1
 91
        4
 64
     7
 65
   257
 75
     1
175
     1
 42
1.0
 92
        8
 66
     7
 43
1.0
 76
     1
 77
     6
 78
     2
 67
     7
 79
     5
170
     0
171
     0
290
     0
174
     0
 93
        1
 44
50.0
173
     0
291
     1
 45
0.0
  0
VISUALSTYLE
  5
183
102
{ACAD_REACTORS
330
28
102
}
330
28
100
AcDbVisualStyle
  2
ColorChange
 70
    16
 71
     2
 72
     2
 73
     3
 90
        0
 40
-0.6
 41
-30.0
 62
     5
 63
     8
421
  8421504
 74
     1
 91
        4
 64
     7
 65
   257
 75
     1
175
     1
 42
1.0
 92
        8
 66
     8
424
  8421504
 43
1.0
 76
     1
 77
     6
 78
     2
 67
     7
 79
     5
170
     0
171
     0
290
     0
174
     0
 93
        1
 44
0.0
173
     0
291
     1
 45
0.0
  0
VISUALSTYLE
  5
17D
102
{ACAD_REACTORS
330
28
102
}
330
28
100
AcDbVisualStyle
  2
Conceptual
 70
     9
 71
     3
 72
     2
 73
     0
 90
        0
 40
-0.6
 41
-30.0
 62
     5
 63
     7
421
 16777215
 74
     2
 91
        2
 64
     7
 65
   257
 75
     1
175
     1
 42
40.0
 92
        8
 66
     7
 43
1.0
 76
     1
 77
     6
 78
     2
 67
     7
 79
     3
170
     0
171
     0
290
     0
174
     0
 93
        1
 44
0.0
173
     0
291
     0
 45
0.0
  0
VISUALSTYLE
  5
17E
102
{ACAD_REACTORS
330
28
102
}
330
28
100
AcDbVisualStyle
  2
Dim
 70
    11
 71
     2
 72
     2
 73
     0
 90
        0
 40
-0.6
 41
-30.0
 62
     5
 63
     7
421
 16777215
 74
     1
 91
        4
 64
     7
 65
   257
 75
     1
175
     1
 42
1.0
 92
        8
 66
     7
 43
1.0
 76
     1
 77
     6
 78
     2
 67
     7
 79
     5
170
     0
171
     0
290
     0
174
     0
 93
        1
 44
-50.0
173
     0
291
     1
 45
0.0
  0
VISUALSTYLE
  5
182
102
{ACAD_REACTORS
330
28
102
}
330
28
100
AcDbVisualStyle
  2
Facepattern
 70
    15
 71
     2
 72
     2
 73
     0
 90
        0
 40
-0.6
 41
-30.0
 62
     5
 63
     7
421
 16777215
 74
     1
 91
        4
 64
     7
 65
   257
 75
     1
175
     1
 42
1.0
 92
        8
 66
     7
 43
1.0
 76
     1
 77
     6
 78
     2
 67
     7
 79
     5
170
     0
171
     0
290
     0
174
     0
 93
        1
 44
0.0
173
     0
291
     1
 45
0.0
  0
VISUALSTYLE
  5
177
102
{ACAD_REACTORS
330
28
102
}
330
28
100
AcDbVisualStyle
  2
Flat
 70
     0
 71
     2
 72
     1
 73
     1
 90
        2
 40
-0.6
 41
30.0
 62
     5
 63
     7
421
 16777215
 74
     0
 91
        4
 64
     7
 65
   257
 75
     1
175
     1
 42
1.0
 92
        8
 66
     7
 43
1.0
 76
     1
 77
     6
 78
     2
 67
     7
 79
     5
170
     0
171
     0
290
     0
174
     0
 93
       13
 44
0.0
173
     0
291
     1
 45
0.0
  0
VISUALSTYLE
  5
178
102
{ACAD_REACTORS
330
28
102
}
330
28
100
AcDbVisualStyle
  2
FlatWithEdges
 70
     1
 71
     2
 72
     1
 73
     1
 90
        2
 40
-0.6
 41
30.0
 62
     5
 63
     7
421
 16777215
 74
     1
 91
        4
 64
     7
 65
   257
 75
     1
175
     1
 42
1.0
 92
        0
 66
   257
 43
1.0
 76
     1
 77
     6
 78
     2
 67
     7
 79
     5
170
     0
171
     0
290
     0
174
     0
 93
       13
 44
0.0
173
     0
291
     1
 45
0.0
  0
VISUALSTYLE
  5
179
102
{ACAD_REACTORS
330
28
102
}
330
28
100
AcDbVisualStyle
  2
Gouraud
 70
     2
 71
     2
 72
     2
 73
     1
 90
        2
 40
-0.6
 41
30.0
 62
     5
 63
     7
421
 16777215
 74
     0
 91
        4
 64
     7
 65
   257
 75
     1
175
     1
 42
1.0
 92
        0
 66
     7
 43
1.0
 76
     1
 77
     6
 78
     2
 67
     7
 79
     5
170
     0
171
     0
290
     0
174
     0
 93
       13
 44
0.0
173
     0
291
     1
 45
0.0
  0
VISUALSTYLE
  5
17A
102
{ACAD_REACTORS
330
28
102
}
330
28
100
AcDbVisualStyle
  2
GouraudWithEdges
 70
     3
 71
     2
 72
     2
 73
     1
 90
        2
 40
-0.6
 41
30.0
 62
     5
 63
     7
421
 16777215
 74
     1
 91
        4
 64
     7
 65
   257
 75
     1
175
     1
 42
1.0
 92
        0
 66
   257
 43
1.0
 76
     1
 77
     6
 78
     2
 67
     7
 79
     5
170
     0
171
     0
290
     0
174
     0
 93
       13
 44
0.0
173
     0
291
     1
 45
0.0
  0
VISUALSTYLE
  5
181
102
{ACAD_REACTORS
330
28
102
}
330
28
100
AcDbVisualStyle
  2
Linepattern
 70
    14
 71
     2
 72
     2
 73
     0
 90
        0
 40
-0.6
 41
-30.0
 62
     5
 63
     7
421
 16777215
 74
     1
 91
        4
 64
     7
 65
   257
 75
     7
175
     7
 42
1.0
 92
        8
 66
     7
 43
1.0
 76
     1
 77
     6
 78
     2
 67
     7
 79
     5
170
     0
171
     0
290
     0
174
     0
 93
        1
 44
0.0
173
     0
291
     1
 45
0.0
  0
VISUALSTYLE
  5
41
102
{ACAD_REACTORS
330
28
102
}
330
28
100
AcDbVisualStyle
  2
Realistic
 70
     8
 71
     2
 72
     2
 73
     0
 90
        0
 40
-0.6
 41
-30.0
 62
     5
 63
     7
421
 16777215
 74
     1
 91
        0
 64
     7
 65
   257
 75
     1
175
     1
 42
1.0
 92
        8
 66
     8
424
  7895160
 43
1.0
 76
     1
 77
     6
 78
     2
 67
     7
 79
     5
170
     0
171
     0
290
     0
174
     0
 93
       13
 44
0.0
173
     0
291
     0
 45
0.0
  0
VISUALSTYLE
  5
180
102
{ACAD_REACTORS
330
28
102
}
330
28
100
AcDbVisualStyle
  2
Thicken
 70
    13
 71
     2
 72
     2
 73
     0
 90
        0
 40
-0.6
 41
-30.0
 62
     5
 63
     7
421
 16777215
 74
     1
 91
        4
 64
     7
 65
   257
 75
     1
175
     1
 42
1.0
 92
       12
 66
     7
 43
1.0
 76
     1
 77
     6
 78
     2
 67
     7
 79
     5
170
     0
171
     0
290
     0
174
     0
 93
        1
 44
0.0
173
     0
291
     1
 45
0.0
  0
DICTIONARYVAR
  5
175
102
{ACAD_REACTORS
330
174
102
}
330
174
100
DictionaryVariables
280
     0
  1
STANDARD
  0
DICTIONARY
  5
15
330
14
100
AcDbDictionary
280
     1
281
     1
  3
ADSK_XREC_LAYOUTTHUMBNAIL
360
16
  0
XRECORD
  5
16
102
{ACAD_REACTORS
330
15
102
}
330
15
100
AcDbXrecord
280
     1
310
28000000B40000007F00000001000800000000004C590000000000000000000000010000000000000000000000000000FFFFFF000000000000000000000000000000000000000000000000000000000000000000330000006600000099000000CC000000FF00000000330000333300006633000099330000CC330000FF3300
310
0000660000336600006666000099660000CC660000FF66000000990000339900006699000099990000CC990000FF99000000CC000033CC000066CC000099CC0000CCCC0000FFCC000000FF000033FF000066FF000099FF0000CCFF0000FFFF000000003300330033006600330099003300CC003300FF003300003333003333
310
33006633330099333300CC333300FF33330000663300336633006666330099663300CC663300FF66330000993300339933006699330099993300CC993300FF99330000CC330033CC330066CC330099CC3300CCCC3300FFCC330000FF330033FF330066FF330099FF3300CCFF3300FFFF330000006600330066006600660099
310
006600CC006600FF00660000336600333366006633660099336600CC336600FF33660000666600336666006666660099666600CC666600FF66660000996600339966006699660099996600CC996600FF99660000CC660033CC660066CC660099CC6600CCCC6600FFCC660000FF660033FF660066FF660099FF6600CCFF6600
310
FFFF660000009900330099006600990099009900CC009900FF00990000339900333399006633990099339900CC339900FF33990000669900336699006666990099669900CC669900FF66990000999900339999006699990099999900CC999900FF99990000CC990033CC990066CC990099CC9900CCCC9900FFCC990000FF99
310
0033FF990066FF990099FF9900CCFF9900FFFF99000000CC003300CC006600CC009900CC00CC00CC00FF00CC000033CC003333CC006633CC009933CC00CC33CC00FF33CC000066CC003366CC006666CC009966CC00CC66CC00FF66CC000099CC003399CC006699CC009999CC00CC99CC00FF99CC0000CCCC0033CCCC0066CC
310
CC0099CCCC00CCCCCC00FFCCCC0000FFCC0033FFCC0066FFCC0099FFCC00CCFFCC00FFFFCC000000FF003300FF006600FF009900FF00CC00FF00FF00FF000033FF003333FF006633FF009933FF00CC33FF00FF33FF000066FF003366FF006666FF009966FF00CC66FF00FF66FF000099FF003399FF006699FF009999FF00CC
310
99FF00FF99FF0000CCFF0033CCFF0066CCFF0099CCFF00CCCCFF00FFCCFF0000FFFF0033FFFF0066FFFF0099FFFF00CCFFFF00FFFFFF00000000000D0D0D001A1A1A00282828003535350043434300505050005D5D5D006B6B6B00787878008686860093939300A1A1A100AEAEAE00BBBBBB00C9C9C900D6D6D600E4E4E400
310
F1F1F100FFFFFF0000000000000000000000000000000000000000000000000000000000000000000000000000000000F5F5F5F5F5F5F5F5F5F5F5F5F5F5F5F5F5F5F5F5F5F5F5F5F5F5F5F5F5F5F5F5F5F5F5F5F5F5F5F5F5F5F5F5F5F5F5F5F5F5F5F5F5F5F5F5F5F5F5F5F5F5F5F5F5F5F5F5F5F5F5F5F5F5F5F5F5F5F5
310
F5F5F5F5F5F5F5F5F5F5F5F5F5F5F5F5F5F5F5F5F5F5F5F5F5F5F5F5F5F5F5F5F5F5F5F5F5F5F5F5F5F5F5F5F5F5F5F5F5F5F5F5F5F5F5F5F5F5F5F5F5F5F5F5F5F5F5F5F5F5F5F5F5F5F5F5F5F5F5F5F5F5F5F5F5F5F5F5F5F5F5F5F5F5F5F5F5F5F5F5F5F5E2E2E2E2E2E2E2E2E2E2E2E2E2E2E2E2E2E2E2E2E2E2E2E2E2
310
E2E2E2E2E2E2E2E2E2E2E2E2E2E2E2E2E2E2E2E2E2E2E2E2E2E2E2E2E2E2E2E2E2E2E2E2E2E2E2E2E2E2E2E2E2E2E2E2E2E2E2E2E2E2E2E2E2E2E2E2E2E2E2E2E2E2E2E2E2E2E2E2E2E2E2E2E2E2E2E2E2E2E2E2E2E2E2E2E2E2E2E2E2E2E2E2E2E2E2E2E2E2E2E2E2E2E2E2E2E2E2E2E2E2E2E2E2E2E2E2E2E2E2E2E2E2E2
310
E2E2E2E2E2E2E2E2E2E2E2E2E2E2E2E2E2E2E2E2E2E2E2E2E2E2F5F5E2E2E2E2E2E2E2E2E2E2E2E2E2E2E2E2E2E2E2E2E2E2E2E2E2E2E2E2E2E2E2E2E2E2E2E2E2E2E2E2E2E2E2E2E2E2E2E2E2E2E2E2E2E2E2E2E2E2E2E2E2E2E2E2E2E2E2E2E2E2E2E2E2E2E2E2E2E2E2E2E2E2E2E2E2E2E2E2E2E2E2E2E2E2E2E2E2E2E2
310
E2E2E2E2E2E2E2E2E2E2E2E2E2E2E2E2E2E2E2E2E2E2E2E2E2E2E2E2E2E2E2E2E2E2E2E2E2E2E2E2E2E2E2E2E2E2E2E2E2E2E2E2E2E2E2E2E2E2E2E2E2E2E2E2E2E2E2E2E2E2E2E2E2E2E2E2E2E2E2F5F5E2E2E2E2E2E2E2E2E2E2E2E2E2E2E2E2E2E2E2E2E2E2E2E2E2E2E2E2E2E2E2E2E2E2E2E2E2E2E2E2E2E2E2E2E2E2
310
E2E2E2E2E2E2E2E2E2E2E2E2E2E2E2E2E2E2E2E2E2E2E2E2E2E2E2E2E2E2E2E2E2E2E2E2E2E2E2E2E2E2E2E2E2E2E2E2E2E2E2E2E2E2E2E2E2E2E2E2E2E2E2E2E2E2E2E2E2E2E2E2E2E2E2E2E2E2E2E2E2E2E2E2E2E2E2E2E2E2E2E2E2E2E2E2E2E2E2E2E2E2E2E2E2E2E2E2E2E2E2E2E2E2E2E2E2E2E2E2E2E2E2E2E2E2E2
310
E2E2E2E2E2F5F5E2E2E2E2E2E2E2E2E2E2E2F5F5F5F5F5F5F5F5F5E2E2E2E2E2E2E2E2E2F5F5F5F5F5F5F5F5F5F5F5F5F5F5F5F5F5E2E2E2E2E2E2E2E2E2F5F5F5F5F5F5F5F5F5F5F5F5F5F5F5F5E2E2E2E2E2E2E2E2E2E2F5F5F5F5F5F5F5F5F5F5F5F5F5F5F5F5E2E2E2E2E2E2E2E2E2E2F5F5F5F5F5F5F5F5F5F5F5F5F5
310
F5F5F5E2E2E2E2E2E2E2E2E2F5F5F5F5F5F5F5F5F5F5F5F5F5F5F5F5F5E2E2E2E2E2E2E2E2E2F5F5F5F5F5F5F5F5F5E2E2E2E2E2E2E2E2E2E2E2F5F5E2E2E2E2E2E2E2E2E2E2E2F5E2E2E2E2E2E2E2E2E2E2E2E2E2E2E2E2E2E2E2E2E2E2E2E2E2E2E2E2E2E2E2E2E2E2E2E2E2E2E2E2E2E2E2E2E2E2E2E2E2E2E2E2E2E2E2
310
E2E2E2E2E2E2E2E2E2E2E2E2E2E2E2E2E2E2E2E2E2E2E2E2E2E2E2E2E2E2E2E2E2E2E2E2E2E2E2E2E2E2E2E2E2E2E2E2E2E2E2E2E2E2E2E2E2E2E2E2E2E2E2E2E2E2E2E2E2E2E2E2E2E2E2E2E2E2E2E2E2E2E2E2E2E2E2E2E2E2E2E2E2E2E2E2E2E2E2F5E2E2E2E2E2E2E2E2E2E2E2F5F5E2E2E2E2E2E2E2E2E2E2E2F5E2E2
310
E2E2E2E2E2E2E2E2E2E2E2E2E2E2E2E2E2E2E2E2E2E2E2E2E2E2E2E2E2E2E2E2E2E2E2E2E2E2E2E2E2E2E2E2E2E2E2E2E2E2E2E2E2E2E2E2E2E2E2E2E2E2E2E2E2E2E2E2E2E2E2E2E2E2E2E2E2E2E2E2E2E2E2E2E2E2E2E2E2E2E2E2E2E2E2E2E2E2E2E2E2E2E2E2E2E2E2E2E2E2E2E2E2E2E2E2E2E2E2E2E2E2E2E2E2E2E2
310
E2E2E2E2E2E2E2E2E2E2E2E2E2E2E2E2E2E2E2E2E2E2E2E2E2F5E2E2E2E2E2E2E2E2E2E2E2F5F5E2E2E2E2E2E2E2E2E2E2E2F5E2E2E2E2E2E2E2E2E2E2E2E2E2E2E2E2E2E2E2E2E2E2E2E2E2E2E2E2E2E2E2E2E2E2E2E2E2E2E2E2E2E2E2E2E2E2E2E2E2E2E2E2E2E2E2E2E2E2E2E2E2E2E2E2E2E2E2E2E2E2E2E2E2E2E2E2
310
E2E2E2E2E2E2E2E2E2E2E2E2E2E2E2E2E2E2E2E2E2E2E2E2E2E2E2E2E2E2E2E2E2E2E2E2E2E2E2E2E2E2E2E2E2E2E2E2E2E2E2E2E2E2E2E2E2E2E2E2E2E2E2E2E2E2E2E2E2E2E2E2E2E2E2E2E2E2F5E2E2E2E2E2E2E2E2E2E2E2F5F5E2E2E2E2E2E2E2E2E2E2E2F5E2E2E2E2E2E2E2E2E2E2E2E2E2E2E2E2E2E2E2E2E2E2E2
310
E2E2E2E2E2E2E2E2E2E2E2E2E2E2E2E2E2E2E2E2E2E2E2E2E2E2E2E2E2E2E2E2E2E2E2E2E2E2E2E2E2E2E2E2E2E2E2E2E2E2E2E2E2E2E2E2E2E2E2E2E2E2E2E2E2E2E2E2E2E2E2E2E2E2E2E2E2E2E2E2E2E2E2E2E2E2E2E2E2E2E2E2E2E2E2E2E2E2E2E2E2E2E2E2E2E2E2E2E2E2E2E2E2E2E2E2E2E2E2E2E2E2E2E2E2E2E2
310
E2E2E2E2F5E2E2E2E2E2E2E2E2E2E2E2F5F5E2E2E2E2E2E2E2E2E2E2E2F5E2E2E2E2E2E2E2E2E2E2E2E2E2E2E2E2E2E2E2E2E2E2E2E2E2E2E2E2E2E2E2E2E2E2E2E2E2E2E2E2E2E2E2E2E2E2E2E2E2E2E2E2E2E2E2E2E2E2E2E2E2E2E2E2E2E2E2E2E2E2E2E2E2E2E2E2E2E2E2E2E2E2E2E2E2E2E2E2E2E2E2E2E2E2E2E2E2
310
E2E2E2E2E2E2E2E2E2E2E2E2E2E2E2E2E2E2E2E2E2E2E2E2E2E2E2E2E2E2E2E2E2E2E2E2E2E2E2E2E2E2E2E2E2E2E2E2E2E2E2E2E2E2E2E2E2F5E2E2E2E2E2E2E2E2E2E2E2F5F5E2E2E2E2E2E2E2E2E2E2E2F5E2E2E2E2E2E2E2E2E2E2E2E2E2E2E2E2E2E2E2E2E2E2E2E2E2E2E2E2E2E2E2E2E2E2E2E2E2E2E2E2E2E2E2E2
310
E2E2E2E2E2E2E2E2E2E2E2E2E2E2E2E2E2E2E2E2E2E2E2E2E2E2E2E2E2E2E2E2E2E2E2E2E2E2E2E2E2E2E2E2E2E2E2E2E2E2E2E2E2E2E2E2E2E2E2E2E2E2E2E2E2E2E2E2E2E2E2E2E2E2E2E2E2E2E2E2E2E2E2E2E2E2E2E2E2E2E2E2E2E2E2E2E2E2E2E2E2E2E2E2E2E2E2E2E2E2F5E2E2E2E2E2E2E2E2E2E2E2F5F5E2E2E2
310
E2E2E2E2E2E2E2E2F5E2E2E2E2E2E2E2E2E2E2E2E2E2E2E2E2E2E2E2E2E2E2E2E2E2E2E2E2E2E2E2E2E2E2E2E2E2E2E2E2E2E2E2E2E2E2E2E2E2E2E2E2E2E2E2E2E2E2E2E2E2E2E2E2E2E2E2E2E2E2E2E2E2E2E2E2E2E2E2E2E2E2E2E2E2E2E2E2E2E2E2E2E2E2E2E2E2E2E2E2E2E2E2E2E2E2E2E2E2E2E2E2E2E2E2E2E2E2
310
E2E2E2E2E2E2E2E2E2E2E2E2E2E2E2E2E2E2E2E2E2E2E2E2E2E2E2E2E2E2E2E2E2E2E2E2F5E2E2E2E2E2E2E2E2E2E2E2F5F5E2E2E2E2E2E2E2E2E2E2E2E2E2E2E2E2E2E2E2E2E2E2E2E2E2E2E2E2E2E2E2E2E2E2E2E2E2E2E2E2E2E2E2E2E2E2E2E2E2E2E2E2E2E2E2E2E2E2E2E2E2E2E2E2E2E2E2E2E2E2E2E2E2E2E2E2E2
310
E2E2E2E2E2E2E2E2E2E2E2E2E2E2E2E2E2E2E2E2E2E2E2E2E2E2E2E2E2E2E2E2E2E2E2E2E2E2E2E2E2E2E2E2E2E2E2E2E2E2E2E2E2E2E2E2E2E2E2E2E2E2E2E2E2E2E2E2E2E2E2E2E2E2E2E2E2E2E2E2E2E2E2E2E2E2E2E2E2E2E2E2E2E2E2E2E2E2E2E2E2F5F5E2E2E2E2E2E2E2E2E2E2E2E2E2E2E2E2E2E2E2E2E2E2E2E2
310
E2E2E2E2E2E2E2E2E2E2E2E2E2E2E2E2E2E2E2E2E2E2E2E2E2E2E2E2E2E2E2E2E2E2E2E2E2E2E2E2E2E2E2E2E2E2E2E2E2E2E2E2E2E2E2E2E2E2E2E2E2E2E2E2E2E2E2E2E2E2E2E2E2E2E2E2E2E2E2E2E2E2E2E2E2E2E2E2E2E2E2E2E2E2E2E2E2E2E2E2E2E2E2E2E2E2E2E2E2E2E2E2E2E2E2E2E2E2E2E2E2E2E2E2E2E2E2
310
E2E2E2E2E2E2E2E2E2E2E2E2E2E2E2E2E2E2E2E2E2E2E2E2E2E2E2F5F5E2E2E2E2E2E2E2E2E2E2E2E2E2E2E2E2E2E2E2E2E2E2E2E2E2E2E2E2E2E2E2E2E2E2E2E2E2E2E2E2E2E2E2E2E2E2E2E2E2E2E2E2E2E2E2E2E2E2E2E2E2E2E2E2E2E2E2E2E2E2E2E2E2E2E2E2E2E2E2E2E2E2E2E2E2E2E2E2E2E2E2E2E2E2E2E2E2E2
310
E2E2E2E2E2E2E2E2E2E2E2E2E2E2E2E2E2E2E2E2E2E2E2E2E2E2E2E2E2E2E2E2E2E2E2E2E2E2E2E2E2E2E2E2E2E2E2E2E2E2E2E2E2E2E2E2E2E2E2E2E2E2E2E2E2E2E2E2E2E2E2E2E2E2E2E2E2E2E2E2F5F5E2E2E2E2E2E2E2E2E2E2E2E2E2E2E2E2E2E2E2E2E2E2E2E2E2E2E2E2E2E2E2E2E2E2E2E2E2E2E2E2E2E2E2E2E2
310
E2E2E2E2E2E2E2E2E2E2E2E2E2E2E2E2E2E2E2E2E2E2E2E2E2E2E2E2E2E2E2E2E2E2E2E2E2E2E2E2E2E2E2E2E2E2E2E2E2E2E2E2E2E2E2E2E2E2E2E2E2E2E2E2E2E2E2E2E2E2E2E2E2E2E2E2E2E2E2E2E2E2E2E2E2E2E2E2E2E2E2E2E2E2E2E2E2E2E2E2E2E2E2E2E2E2E2E2E2E2E2E2E2E2E2E2E2E2E2E2E2E2E2E2E2E2E2
310
E2E2E2E2E2E2F5F5E2E2E2E2E2E2E2E2E2E2E2E2E2E2E2E2E2E2E2E2E2E2E2E2E2E2E2F5F5F5F5F5F5F5F5F5F5F5F5F5F5F5F5F5F5F5F5F5F5F5F5F5F5F5F5F5F5F5F5F5F5F5F5F5F5F5F5F5F5F5F5F5F5F5F5F5F5F5F5F5F5F5F5F5F5F5F5F5F5F5F5F5F5F5F5F5F5F5F5F5F5F5F5F5F5F5F5F5F5F5F5F5F5F5F5F5F5F5F5
310
F5F5F5F5F5F5F5F5F5F5F5F5F5F5F5F5F5F5F5F5F5F5F5F5F5F5F5F5F5F5F5F5E2E2E2E2E2E2E2E2E2E2E2E2E2E2E2E2E2E2E2E2E2E2E2E2E2E2E2F5F5E2E2E2E2E2E2E2E2E2E2E2E2E2E2E2E2E2E2E2E2E2E2E2E2E2E2E2F5E2E2E2E2E2E2E2E2E2E2E2E2E2E2E2E2E2E2E2E2E2E2E2E2E2E2E2E2E2E2E2E2E2E2E2E2E2E2
310
E2E2E2E2E2E2E2E2E2E2E2E2E2E2E2E2E2E2E2E2E2E2E2E2E2E2E2E2E2E2E2E2E2E2E2E2E2E2E2E2E2E2E2E2E2E2E2E2E2E2E2E2E2E2E2E2E2E2E2E2E2E2E2E2E2E2E2E2E2E2E2E2E2E2E2E2E2E2E2E2E2E2E2E2F5E2E2E2E2E2E2E2E2E2E2E2E2E2E2E2E2E2E2E2E2E2E2E2E2E2E2E2F5F5E2E2E2E2E2E2E2E2E2E2E2E2E2
310
E2E2E2E2E2E2E2E2E2E2E2E2E2E2F5E2E2E2E2E2E2E2E2E2E2E2E2E2E2E2E2E2E2E2E2E2E2E2E2E2E2E2E2E2E2E2E2E2E2E2E2E2E2E2E2E2E2E2E2E2E2E2E2E2E2E2E2E2E2E2E2E2E2E2E2E2E2E2E2E2E2E2E2E2E2E2E2E2E2E2E2E2E2E2E2E2E2E2E2E2E2E2E2E2E2E2E2E2E2E2E2E2E2E2E2E2E2E2E2E2E2E2E2E2E2E2E2
310
E2E2E2E2E2E2E2E2E2E2F5E2E2E2E2E2E2E2E2E2E2E2E2E2E2E2E2E2E2E2E2E2E2E2E2E2E2E2F5F5E2E2E2E2E2E2E2E2E2E2E2E2E2E2E2E2E2E2E2E2E2E2E2E2E2E2E2F5E2E2E2E2E2E2E2E2E2E2E2E2E2E2E2E2E2E2E2E2E2E2E2E2E2E2E2E2E2E2E2E2E2E2E2E2E2E2E2E2E2E2E2E2E2E2E2E2E2E2E2E2E2E2E2E2E2E2E2
310
E2E2E2E2E2E2E2E2E2E2E2E2E2E2E2E2E2E2E2E2E2E2E2E2E2E2E2E2E2E2E2E2E2E2E2E2E2E2E2E2E2E2E2E2E2E2E2E2E2E2E2E2E2E2E2E2E2E2E2E2E2E2E2F5E2E2E2E2E2E2E2E2E2E2E2E2E2E2E2E2E2E2E2E2E2E2E2E2E2E2E2F5F5E2E2E2E2E2E2E2E2E2E2E2F5E2E2E2E2E2E2E2E2E2E2E2E2E2E2E2F5E2E2E2E2E2E2
310
E2E2E2E2E2E2E2E2E2E2E2E2E2E2E2E2E2E2E2E2E2E2E2E2E2E2E2E2E2E2E2E2E2E2E2E2E2E2E2E2E2E2E2E2E2E2E2E2E2E2E2E2E2E2E2E2E2E2E2E2E2E2E2E2E2E2E2E2E2E2E2E2E2E2E2E2E2E2E2E2E2E2E2E2E2E2E2E2E2E2E2E2E2E2E2E2E2E2E2E2E2E2E2E2E2E2E2E2E2E2E2E2E2E2E2E2F5E2E2E2E2E2E2E2E2E2E2
310
E2E2E2E2E2F5E2E2E2E2E2E2E2E2E2E2E2F5F5E2E2E2E2E2E2E2E2E2E2E2F5E2E2E2E2E2E2E2E2E2E2E2E2E2E2E2F5E2E2E2E2E2E2E2E2E2E2E2E2E2E2E2E2E2E2E2E2E2E2E2E2E2E2E2E2E2E2E2E2E2E2E2E2E2E2E2E2E2E2E2E2E2E2E2E2E2E2E2E2E2E2E2E2E2E2E2E2E2E2E2E2E2E2E2E2E2E2E2E2E2E2E2E2E2E2E2E2
310
E2E2E2E2E2E2E2E2E2E2E2E2E2E2E2E2E2E2E2E2E2E2E2E2E2E2E2E2E2E2E2E2E2E2E2E2E2E2E2E2E2E2F5E2E2E2E2E2E2E2E2E2E2E2E2E2E2E2F5E2E2E2E2E2E2E2E2E2E2E2F5F5E2E2E2E2E2E2E2E2E2E2E2F5E2E2E2E2E2E2E2E2E2E2E2E2E2E2E2F5E2E2E2E2E2E2E2E2E2E2E2E2E2E2E2E2E2E2E2E2E2E2E2E2E2E2E2
310
E2E2E2E2E2E2E2E2E2E2E2E2E2E2E2E2E2E2E2E2E2E2E2E2E2E2E2E2E2E2E2E2E2E2E2E2E2E2E2E2E2E2E2E2E2E2E2E2E2E2E2E2E2E2E2E2E2E2E2E2E2E2E2E2E2E2E2E2E2E2E2E2E2E2E2E2E2E2E2E2E2E2E2E2E2E2E2E2E2E2E2E2E2E2E2F5E2E2E2E2E2E2E2E2E2E2E2E2E2E2E2F5E2E2E2E2E2E2E2E2E2E2E2F5F5E2E2
310
E2E2E2E2E2E2E2E2E2F5E2E2E2E2E2E2E2E2E2E2E2E2E2E2E2F5E2E2E2E2E2E2E2E2E2E2E2E2E2E2E2E2E2E2E2E2E2E2E2E2E2E2E2E2E2E2E2E2E2E2E2E2E2E2E2E2E2E2E2E2E2E2E2E2E2E2E2E2E2E2E2E2E2E2E2E2E2E2E2E2E2E2E2E2E2E2E2E2E2E2E2E2E2E2E2E2E2E2E2E2E2E2E2E2E2E2E2E2E2E2E2E2E2E2E2E2E2
310
E2E2E2E2E2E2E2E2E2E2E2E2E2E2E2E2E2E2E2E2E2F5E2E2E2E2E2E2E2E2E2E2E2E2E2E2E2F5E2E2E2E2E2E2E2E2E2E2E2F5F5E2E2E2E2E2E2E2E2E2E2E2F5E2E2E2E2E2E2E2E2E2E2E2E2E2E2E2F5E2E2E2E2E2E2E2E2E2E2E2E2E2E2E2E2E2E2E2E2E2E2E2E2E2E2E2E2E2E2E2E2E2E2E2E2E2E2E2E2E2E2E2E2E2E2E2E2
310
E2E2E2E2E2E2E2E2E2E2E2E2E2E2E2E2E2E2E2E2E2E2E2E2E2E2E2E2E2E2E2E2E2E2E2E2E2E2E2E2E2E2E2E2E2E2E2E2E2E2E2E2E2E2E2E2E2E2E2E2E2E2E2E2E2E2E2E2E2E2E2E2E2E2F5E2E2E2E2E2E2E2E2E2E2E2E2E2E2E2F5E2E2E2E2E2E2E2E2E2E2E2F5F5E2E2E2E2E2E2E2E2E2E2E2F5E2E2E2E2E2E2E2E2E2E2E2
310
E2E2E2E2F5E2E2E2E2E2E2E2E2E2E2E2E2E2E2E2E2E2E2E2E2E2E2E2E2E2E2E2E2E2E2E2E2E2E2E2E2E2E2E2E2E2E2E2E2E2E2E2E2E2E2E2E2E2E2E2E2E2E2E2E2E2E2E2E2E2E2E2E2E2E2E2E2E2E2E2E2E2E2E2E2E2E2E2E2E2E2E2E2E2E2E2E2E2E2E2E2E2E2E2E2E2E2E2E2E2E2E2E2E2E2E2E2E2E2E2E2E2E2E2E2E2E2
310
F5E2E2E2E2E2E2E2E2E2E2E2E2E2E2E2F5E2E2E2E2E2E2E2E2E2E2E2F5F5E2E2E2E2E2E2E2E2E2E2E2F5E2E2E2E2E2E2E2E2E2E2E2E2E2E2E2F5E2E2E2E2E2E2E2E2E2E2E2E2E2E2E2E2E2E2E2E2E2E2E2E2E2E2E2E2E2E2E2E2E2E2E2E2E2E2E2E2E2E2E2E2E2E2E2E2E2E2E2E2E2E2E2E2E2E2E2E2E2E2E2E2E2E2E2E2E2
310
E2E2E2E2E2E2E2E2E2E2E2E2E2E2E2E2E2E2E2E2E2E2E2E2E2E2E2E2E2E2E2E2E2E2E2E2E2E2E2E2E2E2E2E2E2E2E2E2E2E2E2E2E2F5E2E2E2E2E2E2E2E2E2E2E2E2E2E2E2F5E2E2E2E2E2E2E2E2E2E2E2F5F5E2E2E2E2E2E2E2E2E2E2E2F5E2E2E2E2E2E2E2E2E2E2E2E2E2E2E2F5E2E2E2E2E2E2E2E2E2E2E2E2E2E2E2E2
310
E2E2E2E2E2E2E2E2E2E2E2E2E2E2E2E2E2E2E2E2E2E2E2E2E2E2E2E2E2E2E2E2E2E2E2E2E2E2E2E2E2E2E2E2E2E2E2E2E2E2E2E2E2E2E2E2E2E2E2E2E2E2E2E2E2E2E2E2E2E2E2E2E2E2E2E2E2E2E2E2E2E2E2E2E2E2E2E2E2E2E2E2E2E2E2E2E2E2E2E2E2E2E2E2E2E2F5E2E2E2E2E2E2E2E2E2E2E2E2E2E2E2F5E2E2E2E2
310
E2E2E2E2E2E2E2F5F5E2E2E2E2E2E2E2E2E2E2E2F5E2E2E2E2E2E2E2E2E2E2E2E2E2E2E2F5E2E2E2E2E2E2E2E2E2E2E2E2E2E2E2E2E2E2E2E2E2E2E2E2E2E2E2E2E2E2E2E2E2E2E2E2E2E2E2E2E2E2E2E2E2E2E2E2E2E2E2E2E2E2E2E2E2E2E2E2E2E2E2E2E2E2E2E2E2E2E2E2E2E2E2E2E2E2E2E2E2E2E2E2E2E2E2E2E2E2
310
E2E2E2E2E2E2E2E2E2E2E2E2E2E2E2E2E2E2E2E2E2E2E2E2E2E2E2E2E2E2E2E2F5E2E2E2E2E2E2E2E2E2E2E2E2E2E2E2F5E2E2E2E2E2E2E2E2E2E2E2F5F5E2E2E2E2E2E2E2E2E2E2E2F5E2E2E2E2E2E2E2E2E2E2E2E2E2E2E2F5E2E2E2E2E2E2E2E2E2E2E2E2E2E2E2E2E2E2E2E2E2E2E2E2E2E2E2E2E2E2E2E2E2E2E2E2E2
310
E2E2E2E2E2E2E2E2E2E2E2E2E2E2E2E2E2E2E2E2E2E2E2E2E2E2E2E2E2E2E2E2E2E2E2E2E2E2E2E2E2E2E2E2E2E2E2E2E2E2E2E2E2E2E2E2E2E2E2E2E2E2E2E2E2E2E2E2E2E2E2E2E2E2E2E2E2E2E2E2E2E2E2E2E2F5E2E2E2E2E2E2E2E2E2E2E2E2E2E2E2F5E2E2E2E2E2E2E2E2E2E2E2F5F5E2E2E2E2E2E2E2E2E2E2E2F5
310
E2E2E2E2E2E2E2E2E2E2E2E2E2E2E2F5E2E2E2E2E2E2E2E2E2E2E2E2E2E2E2E2E2E2E2E2E2E2E2E2E2E2E2E2E2E2E2E2E2E2E2E2E2E2E2E2E2E2E2E2E2E2E2E2E2E2E2E2E2E2E2E2E2E2E2E2E2E2E2E2E2E2E2E2E2E2E2E2E2E2E2E2E2E2E2E2E2E2E2E2E2E2E2E2E2E2E2E2E2E2E2E2E2E2E2E2E2E2E2E2E2E2E2E2E2E2E2
310
E2E2E2E2E2E2E2E2E2E2E2F5E2E2E2E2E2E2E2E2E2E2E2E2E2E2E2F5E2E2E2E2E2E2E2E2E2E2E2F5F5E2E2E2E2E2E2E2E2E2E2E2F5E2E2E2E2E2E2E2E2E2E2E2E2E2E2E2F5E2E2E2E2E2E2E2E2E2E2E2E2E2E2E2E2E2E2E2E2E2E2E2E2E2E2E2E2E2E2E2E2E2E2E2E2E2E2E2E2E2E2E2E2E2E2E2E2E2E2E2E2E2E2E2E2E2E2
310
E2E2E2E2E2E2E2E2E2E2E2E2E2E2E2E2E2E2E2E2E2E2E2E2E2E2E2E2E2E2E2E2E2E2E2E2E2E2E2E2E2E2E2E2E2E2E2E2E2E2E2E2E2E2E2E2E2E2E2E2E2E2E2E2F5E2E2E2E2E2E2E2E2E2E2E2E2E2E2E2F5E2E2E2E2E2E2E2E2E2E2E2F5F5E2E2E2E2E2E2E2E2E2E2E2F5E2E2E2E2E2E2E2E2E2E2E2E2E2E2E2F5E2E2E2E2E2
310
E2E2E2E2E2E2E2E2E2E2E2E2E2E2E2E2E2E2E2E2E2E2E2E2E2E2E2E2E2E2E2E2E2E2E2E2E2E2E2E2E2E2E2E2E2E2E2E2E2E2E2E2E2E2E2E2E2E2E2E2E2E2E2E2E2E2E2E2E2E2E2E2E2E2E2E2E2E2E2E2E2E2E2E2E2E2E2E2E2E2E2E2E2E2E2E2E2E2E2E2E2E2E2E2E2E2E2E2E2E2E2E2E2E2E2E2E2F5E2E2E2E2E2E2E2E2E2
310
E2E2E2E2E2E2F5E2E2E2E2E2E2E2E2E2E2E2F5F5E2E2E2E2E2E2E2E2E2E2E2F5E2E2E2E2E2E2E2E2E2E2E2E2E2E2E2F5E2E2E2E2E2E2E2E2E2E2E2E2E2E2E2E2E2E2E2E2E2E2E2E2E2E2E2E2E2E2E2E2E2E2E2E2E2E2E2E2E2E2E2E2E2E2E2E2E2E2E2E2E2E2E2E2E2E2E2E2E2E2E2E2E2E2E2E2E2E2E2E2E2E2E2E2E2E2E2
310
E2E2E2E2E2E2E2E2E2E2E2E2E2E2E2E2E2E2E2E2E2E2E2E2E2E2E2E2E2E2E2E2E2E2E2E2E2E2E2E2E2E2E2F5E2E2E2E2E2E2E2E2E2E2E2E2E2E2E2F5E2E2E2E2E2E2E2E2E2E2E2F5F5E2E2E2E2E2E2E2E2E2E2E2F5E2E2E2E2E2E2E2E2E2E2E2E2E2E2E2F5E2E2E2E2E2E2E2E2E2E2E2E2E2E2E2E2E2E2E2E2E2E2E2E2E2E2
310
E2E2E2E2E2E2E2E2E2E2E2E2E2E2E2E2E2E2E2E2E2E2E2E2E2E2E2E2E2E2E2E2E2E2E2E2E2E2E2E2E2E2E2E2E2E2E2E2E2E2E2E2E2E2E2E2E2E2E2E2E2E2E2E2E2E2E2E2E2E2E2E2E2E2E2E2E2E2E2E2E2E2E2E2E2E2E2E2E2E2E2E2E2E2E2E2F5E2E2E2E2E2E2E2E2E2E2E2E2E2E2E2F5E2E2E2E2E2E2E2E2E2E2E2F5F5E2
310
E2E2E2E2E2E2E2E2E2E2E2E2E2E2E2E2E2E2E2E2E2E2E2E2E2E2F5E2E2E2E2E2E2E2E2E2E2E2E2E2E2E2E2E2E2E2E2E2E2E2E2E2E2E2E2E2E2E2E2E2E2E2E2E2E2E2E2E2E2E2E2E2E2E2E2E2E2E2E2E2E2E2E2E2E2E2E2E2E2E2E2E2E2E2E2E2E2E2E2E2E2E2E2E2E2E2E2E2E2E2E2E2E2E2E2E2E2E2E2E2E2E2E2E2E2E2E2
310
E2E2E2E2E2E2E2E2E2E2E2E2E2E2E2E2E2E2E2E2E2E2F5E2E2E2E2E2E2E2E2E2E2E2E2E2E2E2E2E2E2E2E2E2E2E2E2E2E2E2F5F5E2E2E2E2E2E2E2E2E2E2E2E2E2E2E2E2E2E2E2E2E2E2E2E2E2E2E2F5E2E2E2E2E2E2E2E2E2E2E2E2E2E2E2E2E2E2E2E2E2E2E2E2E2E2E2E2E2E2E2E2E2E2E2E2E2E2E2E2E2E2E2E2E2E2E2
310
E2E2E2E2E2E2E2E2E2E2E2E2E2E2E2E2E2E2E2E2E2E2E2E2E2E2E2E2E2E2E2E2E2E2E2E2E2E2E2E2E2E2E2E2E2E2E2E2E2E2E2E2E2E2E2E2E2E2E2E2E2E2E2E2E2E2E2E2E2E2E2E2E2E2E2F5E2E2E2E2E2E2E2E2E2E2E2E2E2E2E2E2E2E2E2E2E2E2E2E2E2E2E2F5F5E2E2E2E2E2E2E2E2E2E2E2E2E2E2E2E2E2E2E2E2E2E2
310
E2E2E2E2E2F5E2E2E2E2E2E2E2E2E2E2E2E2E2E2E2E2E2E2E2E2E2E2E2E2E2E2E2E2E2E2E2E2E2E2E2E2E2E2E2E2E2E2E2E2E2E2E2E2E2E2E2E2E2E2E2E2E2E2E2E2E2E2E2E2E2E2E2E2E2E2E2E2E2E2E2E2E2E2E2E2E2E2E2E2E2E2E2E2E2E2E2E2E2E2E2E2E2E2E2E2E2E2E2E2E2E2E2E2E2E2E2E2E2E2E2E2E2E2E2E2E2
310
E2F5E2E2E2E2E2E2E2E2E2E2E2E2E2E2E2E2E2E2E2E2E2E2E2E2E2E2E2F5F5E2E2E2E2E2E2E2E2E2E2E2E2E2E2E2E2E2E2E2E2E2E2E2E2E2E2E2F5E2E2E2E2E2E2E2E2E2E2E2E2E2E2E2E2E2E2E2E2E2E2E2E2E2E2E2E2E2E2E2E2E2E2E2E2E2E2E2E2E2E2E2E2E2E2E2E2E2E2E2E2E2E2E2E2E2E2E2E2E2E2E2E2E2E2E2E2
310
E2E2E2E2E2E2E2E2E2E2E2E2E2E2E2E2E2E2E2E2E2E2E2E2E2E2E2E2E2E2E2E2E2E2E2E2E2E2E2E2E2E2E2E2E2E2E2E2E2E2E2E2E2E2F5E2E2E2E2E2E2E2E2E2E2E2E2E2E2E2E2E2E2E2E2E2E2E2E2E2E2E2F5F5E2E2E2E2E2E2E2E2E2E2E2E2E2E2E2E2E2E2E2E2E2E2E2E2E2E2E2F5E2E2E2E2E2E2E2E2E2E2E2E2E2E2E2
310
E2E2E2E2E2E2E2E2E2E2E2E2E2E2E2E2E2E2E2E2E2E2E2E2E2E2E2E2E2E2E2E2E2E2E2E2E2E2E2E2E2E2E2E2E2E2E2E2E2E2E2E2E2E2E2E2E2E2E2E2E2E2E2E2E2E2E2E2E2E2E2E2E2E2E2E2E2E2E2E2E2E2E2E2E2E2E2E2E2E2E2E2E2E2E2E2E2E2E2E2E2E2E2E2E2E2E2F5E2E2E2E2E2E2E2E2E2E2E2E2E2E2E2E2E2E2E2
310
E2E2E2E2E2E2E2E2F5F5E2E2E2E2E2E2E2E2E2E2E2E2E2E2E2E2E2E2E2E2E2E2E2E2E2E2E2F5E2E2E2E2E2E2E2E2E2E2E2E2E2E2E2E2E2E2E2E2E2E2E2E2E2E2E2E2E2E2E2E2E2E2E2E2E2E2E2E2E2E2E2E2E2E2E2E2E2E2E2E2E2E2E2E2E2E2E2E2E2E2E2E2E2E2E2E2E2E2E2E2E2E2E2E2E2E2E2E2E2E2E2E2E2E2E2E2E2
310
E2E2E2E2E2E2E2E2E2E2E2E2E2E2E2E2E2E2E2E2E2E2E2E2E2E2E2E2E2E2E2E2E2F5E2E2E2E2E2E2E2E2E2E2E2E2E2E2E2E2E2E2E2E2E2E2E2E2E2E2E2F5F5E2E2E2E2E2E2E2E2E2E2E2E2E2E2E2E2E2E2E2E2E2E2E2E2E2E2E2F5E2E2E2E2E2E2E2E2E2E2E2E2E2E2E2E2E2E2E2E2E2E2E2E2E2E2E2E2E2E2E2E2E2E2E2E2
310
E2E2E2E2E2E2E2E2E2E2E2E2E2E2E2E2E2E2E2E2E2E2E2E2E2E2E2E2E2E2E2E2E2E2E2E2E2E2E2E2E2E2E2E2E2E2E2E2E2E2E2E2E2E2E2E2E2E2E2E2E2E2E2E2E2E2E2E2E2E2E2E2E2E2E2E2E2E2E2E2E2E2E2E2E2E2F5E2E2E2E2E2E2E2E2E2E2E2E2E2E2E2E2E2E2E2E2E2E2E2E2E2E2E2F5F5E2E2E2E2E2E2E2E2E2E2E2
310
E2E2E2E2E2E2E2E2E2E2E2E2E2E2E2E2F5E2E2E2E2E2E2E2E2E2E2E2E2E2E2E2E2E2E2E2E2E2E2E2E2E2E2E2E2E2E2E2E2E2E2E2E2E2E2E2E2E2E2E2E2E2E2E2E2E2E2E2E2E2E2E2E2E2E2E2E2E2E2E2E2E2E2E2E2E2E2E2E2E2E2E2E2E2E2E2E2E2E2E2E2E2E2E2E2E2E2E2E2E2E2E2E2E2E2E2E2E2E2E2E2E2E2E2E2E2E2
310
E2E2E2E2E2E2E2E2E2E2E2E2F5E2E2E2E2E2E2E2E2E2E2E2E2E2E2E2E2E2E2E2E2E2E2E2E2E2E2E2F5F5E2E2E2E2E2E2E2E2E2E2E2E2E2E2E2E2E2E2E2E2E2E2E2E2E2E2E2F5E2E2E2E2E2E2E2E2E2E2E2E2E2E2E2E2E2E2E2E2E2E2E2E2E2E2E2E2E2E2E2E2E2E2E2E2E2E2E2E2E2E2E2E2E2E2E2E2E2E2E2E2E2E2E2E2E2
310
E2E2E2E2E2E2E2E2E2E2E2E2E2E2E2E2E2E2E2E2E2E2E2E2E2E2E2E2E2E2E2E2E2E2E2E2E2E2E2E2E2E2E2E2E2E2E2E2E2E2E2E2E2E2E2E2E2E2E2E2E2E2E2E2E2F5E2E2E2E2E2E2E2E2E2E2E2E2E2E2E2E2E2E2E2E2E2E2E2E2E2E2E2F5F5E2E2E2E2E2E2E2E2E2E2E2F5E2E2E2E2E2E2E2E2E2E2E2E2E2E2E2F5E2E2E2E2
310
E2E2E2E2E2E2E2E2E2E2E2E2E2E2E2E2E2E2E2E2E2E2E2E2E2E2E2E2E2E2E2E2E2E2E2E2E2E2E2E2E2E2E2E2E2E2E2E2E2E2E2E2E2E2E2E2E2E2E2E2E2E2E2E2E2E2E2E2E2E2E2E2E2E2E2E2E2E2E2E2E2E2E2E2E2E2E2E2E2E2E2E2E2E2E2E2E2E2E2E2E2E2E2E2E2E2E2E2E2E2E2E2E2E2E2E2E2E2F5E2E2E2E2E2E2E2E2
310
E2E2E2E2E2E2E2F5E2E2E2E2E2E2E2E2E2E2E2F5F5E2E2E2E2E2E2E2E2E2E2E2F5E2E2E2E2E2E2E2E2E2E2E2E2E2E2E2F5E2E2E2E2E2E2E2E2E2E2E2E2E2E2E2E2E2E2E2E2E2E2E2E2E2E2E2E2E2E2E2E2E2E2E2E2E2E2E2E2E2E2E2E2E2E2E2E2E2E2E2E2E2E2E2E2E2E2E2E2E2E2E2E2E2E2E2E2E2E2E2E2E2E2E2E2E2E2
310
E2E2E2E2E2E2E2E2E2E2E2E2E2E2E2E2E2E2E2E2E2E2E2E2E2E2E2E2E2E2E2E2E2E2E2E2E2E2E2E2E2E2E2E2F5E2E2E2E2E2E2E2E2E2E2E2E2E2E2E2F5E2E2E2E2E2E2E2E2E2E2E2F5F5E2E2E2E2E2E2E2E2E2E2E2F5E2E2E2E2E2E2E2E2E2E2E2E2E2E2E2F5E2E2E2E2E2E2E2E2E2E2E2E2E2E2E2E2E2E2E2E2E2E2E2E2E2
310
E2E2E2E2E2E2E2E2E2E2E2E2E2E2E2E2E2E2E2E2E2E2E2E2E2E2E2E2E2E2E2E2E2E2E2E2E2E2E2E2E2E2E2E2E2E2E2E2E2E2E2E2E2E2E2E2E2E2E2E2E2E2E2E2E2E2E2E2E2E2E2E2E2E2E2E2E2E2E2E2E2E2E2E2E2E2E2E2E2E2E2E2E2E2E2E2E2F5E2E2E2E2E2E2E2E2E2E2E2E2E2E2E2F5E2E2E2E2E2E2E2E2E2E2E2F5F5
310
E2E2E2E2E2E2E2E2E2E2E2F5E2E2E2E2E2E2E2E2E2E2E2E2E2E2E2F5E2E2E2E2E2E2E2E2E2E2E2E2E2E2E2E2E2E2E2E2E2E2E2E2E2E2E2E2E2E2E2E2E2E2E2E2E2E2E2E2E2E2E2E2E2E2E2E2E2E2E2E2E2E2E2E2E2E2E2E2E2E2E2E2E2E2E2E2E2E2E2E2E2E2E2E2E2E2E2E2E2E2E2E2E2E2E2E2E2E2E2E2E2E2E2E2E2E2E2
310
E2E2E2E2E2E2E2E2E2E2E2E2E2E2E2E2E2E2E2E2E2E2E2F5E2E2E2E2E2E2E2E2E2E2E2E2E2E2E2F5E2E2E2E2E2E2E2E2E2E2E2F5F5E2E2E2E2E2E2E2E2E2E2E2F5E2E2E2E2E2E2E2E2E2E2E2E2E2E2E2F5E2E2E2E2E2E2E2E2E2E2E2E2E2E2E2E2E2E2E2E2E2E2E2E2E2E2E2E2E2E2E2E2E2E2E2E2E2E2E2E2E2E2E2E2E2E2
310
E2E2E2E2E2E2E2E2E2E2E2E2E2E2E2E2E2E2E2E2E2E2E2E2E2E2E2E2E2E2E2E2E2E2E2E2E2E2E2E2E2E2E2E2E2E2E2E2E2E2E2E2E2E2E2E2E2E2E2E2E2E2E2E2E2E2E2E2E2E2E2E2E2E2E2E2F5E2E2E2E2E2E2E2E2E2E2E2E2E2E2E2F5E2E2E2E2E2E2E2E2E2E2E2F5F5E2E2E2E2E2E2E2E2E2E2E2F5E2E2E2E2E2E2E2E2E2
310
E2E2E2E2E2E2F5E2E2E2E2E2E2E2E2E2E2E2E2E2E2E2E2E2E2E2E2E2E2E2E2E2E2E2E2E2E2E2E2E2E2E2E2E2E2E2E2E2E2E2E2E2E2E2E2E2E2E2E2E2E2E2E2E2E2E2E2E2E2E2E2E2E2E2E2E2E2E2E2E2E2E2E2E2E2E2E2E2E2E2E2E2E2E2E2E2E2E2E2E2E2E2E2E2E2E2E2E2E2E2E2E2E2E2E2E2E2E2E2E2E2E2E2E2E2E2E2
310
E2E2F5E2E2E2E2E2E2E2E2E2E2E2E2E2E2E2F5E2E2E2E2E2E2E2E2E2E2E2F5F5E2E2E2E2E2E2E2E2E2E2E2F5E2E2E2E2E2E2E2E2E2E2E2E2E2E2E2F5E2E2E2E2E2E2E2E2E2E2E2E2E2E2E2E2E2E2E2E2E2E2E2E2E2E2E2E2E2E2E2E2E2E2E2E2E2E2E2E2E2E2E2E2E2E2E2E2E2E2E2E2E2E2E2E2E2E2E2E2E2E2E2E2E2E2E2
310
E2E2E2E2E2E2E2E2E2E2E2E2E2E2E2E2E2E2E2E2E2E2E2E2E2E2E2E2E2E2E2E2E2E2E2E2E2E2E2E2E2E2E2E2E2E2E2E2E2E2E2E2E2E2E2F5E2E2E2E2E2E2E2E2E2E2E2E2E2E2E2F5E2E2E2E2E2E2E2E2E2E2E2F5F5E2E2E2E2E2E2E2E2E2E2E2F5E2E2E2E2E2E2E2E2E2E2E2E2E2E2E2F5E2E2E2E2E2E2E2E2E2E2E2E2E2E2
310
E2E2E2E2E2E2E2E2E2E2E2E2E2E2E2E2E2E2E2E2E2E2E2E2E2E2E2E2E2E2E2E2E2E2E2E2E2E2E2E2E2E2E2E2E2E2E2E2E2E2E2E2E2E2E2E2E2E2E2E2E2E2E2E2E2E2E2E2E2E2E2E2E2E2E2E2E2E2E2E2E2E2E2E2E2E2E2E2E2E2E2E2E2E2E2E2E2E2E2E2E2E2E2E2E2E2E2E2F5E2E2E2E2E2E2E2E2E2E2E2E2E2E2E2F5E2E2
310
E2E2E2E2E2E2E2E2E2F5F5E2E2E2E2E2E2E2E2E2E2E2F5E2E2E2E2E2E2E2E2E2E2E2E2E2E2E2F5E2E2E2E2E2E2E2E2E2E2E2E2E2E2E2E2E2E2E2E2E2E2E2E2E2E2E2E2E2E2E2E2E2E2E2E2E2E2E2E2E2E2E2E2E2E2E2E2E2E2E2E2E2E2E2E2E2E2E2E2E2E2E2E2E2E2E2E2E2E2E2E2E2E2E2E2E2E2E2E2E2E2E2E2E2E2E2E2
310
E2E2E2E2E2E2E2E2E2E2E2E2E2E2E2E2E2E2E2E2E2E2E2E2E2E2E2E2E2E2E2E2E2E2F5E2E2E2E2E2E2E2E2E2E2E2E2E2E2E2F5E2E2E2E2E2E2E2E2E2E2E2F5F5E2E2E2E2E2E2E2E2E2E2E2F5E2E2E2E2E2E2E2E2E2E2E2E2E2E2E2F5E2E2E2E2E2E2E2E2E2E2E2E2E2E2E2E2E2E2E2E2E2E2E2E2E2E2E2E2E2E2E2E2E2E2E2
310
E2E2E2E2E2E2E2E2E2E2E2E2E2E2E2E2E2E2E2E2E2E2E2E2E2E2E2E2E2E2E2E2E2E2E2E2E2E2E2E2E2E2E2E2E2E2E2E2E2E2E2E2E2E2E2E2E2E2E2E2E2E2E2E2E2E2E2E2E2E2E2E2E2E2E2E2E2E2E2E2E2E2E2E2E2E2E2F5E2E2E2E2E2E2E2E2E2E2E2E2E2E2E2F5E2E2E2E2E2E2E2E2E2E2E2F5F5E2E2E2E2E2E2E2E2E2E2
310
E2F5E2E2E2E2E2E2E2E2E2E2E2E2E2E2E2F5E2E2E2E2E2E2E2E2E2E2E2E2E2E2E2E2E2E2E2E2E2E2E2E2E2E2E2E2E2E2E2E2E2E2E2E2E2E2E2E2E2E2E2E2E2E2E2E2E2E2E2E2E2E2E2E2E2E2E2E2E2E2E2E2E2E2E2E2E2E2E2E2E2E2E2E2E2E2E2E2E2E2E2E2E2E2E2E2E2E2E2E2E2E2E2E2E2E2E2E2E2E2E2E2E2E2E2E2E2
310
E2E2E2E2E2E2E2E2E2E2E2E2E2F5E2E2E2E2E2E2E2E2E2E2E2E2E2E2E2F5E2E2E2E2E2E2E2E2E2E2E2F5F5E2E2E2E2E2E2E2E2E2E2E2F5E2E2E2E2E2E2E2E2E2E2E2E2E2E2E2F5E2E2E2E2E2E2E2E2E2E2E2E2E2E2E2E2E2E2E2E2E2E2E2E2E2E2E2E2E2E2E2E2E2E2E2E2E2E2E2E2E2E2E2E2E2E2E2E2E2E2E2E2E2E2E2E2
310
E2E2E2E2E2E2E2E2E2E2E2E2E2E2E2E2E2E2E2E2E2E2E2E2E2E2E2E2E2E2E2E2E2E2E2E2E2E2E2E2E2E2E2E2E2E2E2E2E2E2E2E2E2E2E2E2E2E2E2E2E2E2E2E2E2E2F5E2E2E2E2E2E2E2E2E2E2E2E2E2E2E2F5E2E2E2E2E2E2E2E2E2E2E2F5F5E2E2E2E2E2E2E2E2E2E2E2F5E2E2E2E2E2E2E2E2E2E2E2E2E2E2E2F5E2E2E2
310
E2E2E2E2E2E2E2E2E2E2E2E2E2E2E2E2E2E2E2E2E2E2E2E2E2E2E2E2E2E2E2E2E2E2E2E2E2E2E2E2E2E2E2E2E2E2E2E2E2E2E2E2E2E2E2E2E2E2E2E2E2E2E2E2E2E2E2E2E2E2E2E2E2E2E2E2E2E2E2E2E2E2E2E2E2E2E2E2E2E2E2E2E2E2E2E2E2E2E2E2E2E2E2E2E2E2E2E2E2E2E2E2E2E2E2E2E2E2E2F5E2E2E2E2E2E2E2
310
E2E2E2E2E2E2E2E2F5E2E2E2E2E2E2E2E2E2E2E2F5F5E2E2E2E2E2E2E2E2E2E2E2F5E2E2E2E2E2E2E2E2E2E2E2E2E2E2E2F5E2E2E2E2E2E2E2E2E2E2E2E2E2E2E2E2E2E2E2E2E2E2E2E2E2E2E2E2E2E2E2E2E2E2E2E2E2E2E2E2E2E2E2E2E2E2E2E2E2E2E2E2E2E2E2E2E2E2E2E2E2E2E2E2E2E2E2E2E2E2E2E2E2E2E2E2E2
310
E2E2E2E2E2E2E2E2E2E2E2E2E2E2E2E2E2E2E2E2E2E2E2E2E2E2E2E2E2E2E2E2E2E2E2E2E2E2E2E2E2E2E2E2E2F5E2E2E2E2E2E2E2E2E2E2E2E2E2E2E2F5E2E2E2E2E2E2E2E2E2E2E2F5F5E2E2E2E2E2E2E2E2E2E2E2F5E2E2E2E2E2E2E2E2E2E2E2E2E2E2E2F5E2E2E2E2E2E2E2E2E2E2E2E2E2E2E2E2E2E2E2E2E2E2E2E2
310
E2E2E2E2E2E2E2E2E2E2E2E2E2E2E2E2E2E2E2E2E2E2E2E2E2E2E2E2E2E2E2E2E2E2E2E2E2E2E2E2E2E2E2E2E2E2E2E2E2E2E2E2E2E2E2E2E2E2E2E2E2E2E2E2E2E2E2E2E2E2E2E2E2E2E2E2E2E2E2E2E2E2E2E2E2E2E2E2E2E2E2E2E2E2E2E2E2E2F5E2E2E2E2E2E2E2E2E2E2E2E2E2E2E2F5E2E2E2E2E2E2E2E2E2E2E2F5
310
F5E2E2E2E2E2E2E2E2E2E2E2E2E2E2E2E2E2E2E2E2E2E2E2E2E2E2E2F5E2E2E2E2E2E2E2E2E2E2E2E2E2E2E2E2E2E2E2E2E2E2E2E2E2E2E2E2E2E2E2E2E2E2E2E2E2E2E2E2E2E2E2E2E2E2E2E2E2E2E2E2E2E2E2E2E2E2E2E2E2E2E2E2E2E2E2E2E2E2E2E2E2E2E2E2E2E2E2E2E2E2E2E2E2E2E2E2E2E2E2E2E2E2E2E2E2E2
310
E2E2E2E2E2E2E2E2E2E2E2E2E2E2E2E2E2E2E2E2E2E2E2E2F5E2E2E2E2E2E2E2E2E2E2E2E2E2E2E2E2E2E2E2E2E2E2E2E2E2E2E2F5F5E2E2E2E2E2E2E2E2E2E2E2E2E2E2E2E2E2E2E2E2E2E2E2E2E2E2E2F5E2E2E2E2E2E2E2E2E2E2E2E2E2E2E2E2E2E2E2E2E2E2E2E2E2E2E2E2E2E2E2E2E2E2E2E2E2E2E2E2E2E2E2E2E2
310
E2E2E2E2E2E2E2E2E2E2E2E2E2E2E2E2E2E2E2E2E2E2E2E2E2E2E2E2E2E2E2E2E2E2E2E2E2E2E2E2E2E2E2E2E2E2E2E2E2E2E2E2E2E2E2E2E2E2E2E2E2E2E2E2E2E2E2E2E2E2E2E2E2E2E2E2E2F5E2E2E2E2E2E2E2E2E2E2E2E2E2E2E2E2E2E2E2E2E2E2E2E2E2E2E2F5F5E2E2E2E2E2E2E2E2E2E2E2E2E2E2E2E2E2E2E2E2
310
E2E2E2E2E2E2E2F5E2E2E2E2E2E2E2E2E2E2E2E2E2E2E2E2E2E2E2E2E2E2E2E2E2E2E2E2E2E2E2E2E2E2E2E2E2E2E2E2E2E2E2E2E2E2E2E2E2E2E2E2E2E2E2E2E2E2E2E2E2E2E2E2E2E2E2E2E2E2E2E2E2E2E2E2E2E2E2E2E2E2E2E2E2E2E2E2E2E2E2E2E2E2E2E2E2E2E2E2E2E2E2E2E2E2E2E2E2E2E2E2E2E2E2E2E2E2E2
310
E2E2E2F5E2E2E2E2E2E2E2E2E2E2E2E2E2E2E2E2E2E2E2E2E2E2E2E2E2E2E2F5F5E2E2E2E2E2E2E2E2E2E2E2E2E2E2E2E2E2E2E2E2E2E2E2E2E2E2E2F5E2E2E2E2E2E2E2E2E2E2E2E2E2E2E2E2E2E2E2E2E2E2E2E2E2E2E2E2E2E2E2E2E2E2E2E2E2E2E2E2E2E2E2E2E2E2E2E2E2E2E2E2E2E2E2E2E2E2E2E2E2E2E2E2E2E2
310
E2E2E2E2E2E2E2E2E2E2E2E2E2E2E2E2E2E2E2E2E2E2E2E2E2E2E2E2E2E2E2E2E2E2E2E2E2E2E2E2E2E2E2E2E2E2E2E2E2E2E2E2E2E2E2E2F5E2E2E2E2E2E2E2E2E2E2E2E2E2E2E2E2E2E2E2E2E2E2E2E2E2E2E2F5F5E2E2E2E2E2E2E2E2E2E2E2E2E2E2E2E2E2E2E2E2E2E2E2E2E2E2E2F5E2E2E2E2E2E2E2E2E2E2E2E2E2
310
E2E2E2E2E2E2E2E2E2E2E2E2E2E2E2E2E2E2E2E2E2E2E2E2E2E2E2E2E2E2E2E2E2E2E2E2E2E2E2E2E2E2E2E2E2E2E2E2E2E2E2E2E2E2E2E2E2E2E2E2E2E2E2E2E2E2E2E2E2E2E2E2E2E2E2E2E2E2E2E2E2E2E2E2E2E2E2E2E2E2E2E2E2E2E2E2E2E2E2E2E2E2E2E2E2E2E2E2E2F5E2E2E2E2E2E2E2E2E2E2E2E2E2E2E2E2E2
310
E2E2E2E2E2E2E2E2E2E2F5F5E2E2E2E2E2E2E2E2E2E2E2E2E2E2E2E2E2E2E2E2E2E2E2E2E2E2E2F5E2E2E2E2E2E2E2E2E2E2E2E2E2E2E2E2E2E2E2E2E2E2E2E2E2E2E2E2E2E2E2E2E2E2E2E2E2E2E2E2E2E2E2E2E2E2E2E2E2E2E2E2E2E2E2E2E2E2E2E2E2E2E2E2E2E2E2E2E2E2E2E2E2E2E2E2E2E2E2E2E2E2E2E2E2E2E2
310
E2E2E2E2E2E2E2E2E2E2E2E2E2E2E2E2E2E2E2E2E2E2E2E2E2E2E2E2E2E2E2E2E2E2E2F5E2E2E2E2E2E2E2E2E2E2E2E2E2E2E2E2E2E2E2E2E2E2E2E2E2E2E2F5F5E2E2E2E2E2E2E2E2E2E2E2E2E2E2E2E2E2E2E2E2E2E2E2E2E2E2E2F5E2E2E2E2E2E2E2E2E2E2E2E2E2E2E2E2E2E2E2E2E2E2E2E2E2E2E2E2E2E2E2E2E2E2
310
E2E2E2E2E2E2E2E2E2E2E2E2E2E2E2E2E2E2E2E2E2E2E2E2E2E2E2E2E2E2E2E2E2E2E2E2E2E2E2E2E2E2E2E2E2E2E2E2E2E2E2E2E2E2E2E2E2E2E2E2E2E2E2E2E2E2E2E2E2E2E2E2E2E2E2E2E2E2E2E2E2E2E2E2E2E2E2E2F5E2E2E2E2E2E2E2E2E2E2E2E2E2E2E2E2E2E2E2E2E2E2E2E2E2E2E2F5F5E2E2E2E2E2E2E2E2E2
310
E2E2E2E2E2E2E2E2E2E2E2E2E2E2E2E2E2E2F5E2E2E2E2E2E2E2E2E2E2E2E2E2E2E2E2E2E2E2E2E2E2E2E2E2E2E2E2E2E2E2E2E2E2E2E2E2E2E2E2E2E2E2E2E2E2E2E2E2E2E2E2E2E2E2E2E2E2E2E2E2E2E2E2E2E2E2E2E2E2E2E2E2E2E2E2E2E2E2E2E2E2E2E2E2E2E2E2E2E2E2E2E2E2E2E2E2E2E2E2E2E2E2E2E2E2E2E2
310
E2E2E2E2E2E2E2E2E2E2E2E2E2E2F5E2E2E2E2E2E2E2E2E2E2E2E2E2E2E2E2E2E2E2E2E2E2E2E2E2E2E2F5F5E2E2E2E2E2E2E2E2E2E2E2F5E2E2E2E2E2E2E2E2E2E2E2E2E2E2E2F5E2E2E2E2E2E2E2E2E2E2E2E2E2E2E2E2E2E2E2E2E2E2E2E2E2E2E2E2E2E2E2E2E2E2E2E2E2E2E2E2E2E2E2E2E2E2E2E2E2E2E2E2E2E2E2
310
E2E2E2E2E2E2E2E2E2E2E2E2E2E2E2E2E2E2E2E2E2E2E2E2E2E2E2E2E2E2E2E2E2E2E2E2E2E2E2E2E2E2E2E2E2E2E2E2E2E2E2E2E2E2E2E2E2E2E2E2E2E2E2E2E2E2E2F5E2E2E2E2E2E2E2E2E2E2E2E2E2E2E2F5E2E2E2E2E2E2E2E2E2E2E2F5F5E2E2E2E2E2E2E2E2E2E2E2F5E2E2E2E2E2E2E2E2E2E2E2E2E2E2E2F5E2E2
310
E2E2E2E2E2E2E2E2E2E2E2E2E2E2E2E2E2E2E2E2E2E2E2E2E2E2E2E2E2E2E2E2E2E2E2E2E2E2E2E2E2E2E2E2E2E2E2E2E2E2E2E2E2E2E2E2E2E2E2E2E2E2E2E2E2E2E2E2E2E2E2E2E2E2E2E2E2E2E2E2E2E2E2E2E2E2E2E2E2E2E2E2E2E2E2E2E2E2E2E2E2E2E2E2E2E2E2E2E2E2E2E2E2E2E2E2E2E2E2E2F5E2E2E2E2E2E2
310
E2E2E2E2E2E2E2E2E2F5E2E2E2E2E2E2E2E2E2E2E2F5F5E2E2E2E2E2E2E2E2E2E2E2F5E2E2E2E2E2E2E2E2E2E2E2E2E2E2E2F5E2E2E2E2E2E2E2E2E2E2E2E2E2E2E2E2E2E2E2E2E2E2E2E2E2E2E2E2E2E2E2E2E2E2E2E2E2E2E2E2E2E2E2E2E2E2E2E2E2E2E2E2E2E2E2E2E2E2E2E2E2E2E2E2E2E2E2E2E2E2E2E2E2E2E2E2
310
E2E2E2E2E2E2E2E2E2E2E2E2E2E2E2E2E2E2E2E2E2E2E2E2E2E2E2E2E2E2E2E2E2E2E2E2E2E2E2E2E2E2E2E2E2E2F5E2E2E2E2E2E2E2E2E2E2E2E2E2E2E2F5E2E2E2E2E2E2E2E2E2E2E2F5F5E2E2E2E2E2E2E2E2E2E2E2F5E2E2E2E2E2E2E2E2E2E2E2E2E2E2E2F5E2E2E2E2E2E2E2E2E2E2E2E2E2E2E2E2E2E2E2E2E2E2E2
310
E2E2E2E2E2E2E2E2E2E2E2E2E2E2E2E2E2E2E2E2E2E2E2E2E2E2E2E2E2E2E2E2E2E2E2E2E2E2E2E2E2E2E2E2E2E2E2E2E2E2E2E2E2E2E2E2E2E2E2E2E2E2E2E2E2E2E2E2E2E2E2E2E2E2E2E2E2E2E2E2E2E2E2E2E2E2E2E2E2E2E2E2E2E2E2E2E2E2E2F5E2E2E2E2E2E2E2E2E2E2E2E2E2E2E2F5E2E2E2E2E2E2E2E2E2E2E2
310
F5F5E2E2E2E2E2E2E2E2E2E2E2F5E2E2E2E2E2E2E2E2E2E2E2E2E2E2E2F5E2E2E2E2E2E2E2E2E2E2E2E2E2E2E2E2E2E2E2E2E2E2E2E2E2E2E2E2E2E2E2E2E2E2E2E2E2E2E2E2E2E2E2E2E2E2E2E2E2E2E2E2E2E2E2E2E2E2E2E2E2E2E2E2E2E2E2E2E2E2E2E2E2E2E2E2E2E2E2E2E2E2E2E2E2E2E2E2E2E2E2E2E2E2E2E2E2
310
E2E2E2E2E2E2E2E2E2E2E2E2E2E2E2E2E2E2E2E2E2E2E2E2E2F5E2E2E2E2E2E2E2E2E2E2E2E2E2E2E2F5E2E2E2E2E2E2E2E2E2E2E2F5F5E2E2E2E2E2E2E2E2E2E2E2F5E2E2E2E2E2E2E2E2E2E2E2E2E2E2E2F5E2E2E2E2E2E2E2E2E2E2E2E2E2E2E2E2E2E2E2E2E2E2E2E2E2E2E2E2E2E2E2E2E2E2E2E2E2E2E2E2E2E2E2E2
310
E2E2E2E2E2E2E2E2E2E2E2E2E2E2E2E2E2E2E2E2E2E2E2E2E2E2E2E2E2E2E2E2E2E2E2E2E2E2E2E2E2E2E2E2E2E2E2E2E2E2E2E2E2E2E2E2E2E2E2E2E2E2E2E2E2E2E2E2E2E2E2E2E2E2E2E2E2E2F5E2E2E2E2E2E2E2E2E2E2E2E2E2E2E2F5E2E2E2E2E2E2E2E2E2E2E2F5F5E2E2E2E2E2E2E2E2E2E2E2F5E2E2E2E2E2E2E2
310
E2E2E2E2E2E2E2E2F5E2E2E2E2E2E2E2E2E2E2E2E2E2E2E2E2E2E2E2E2E2E2E2E2E2E2E2E2E2E2E2E2E2E2E2E2E2E2E2E2E2E2E2E2E2E2E2E2E2E2E2E2E2E2E2E2E2E2E2E2E2E2E2E2E2E2E2E2E2E2E2E2E2E2E2E2E2E2E2E2E2E2E2E2E2E2E2E2E2E2E2E2E2E2E2E2E2E2E2E2E2E2E2E2E2E2E2E2E2E2E2E2E2E2E2E2E2E2
310
E2E2E2E2F5E2E2E2E2E2E2E2E2E2E2E2E2E2E2E2F5E2E2E2E2E2E2E2E2E2E2E2F5F5E2E2E2E2E2E2E2E2E2E2E2F5E2E2E2E2E2E2E2E2E2E2E2E2E2E2E2F5E2E2E2E2E2E2E2E2E2E2E2E2E2E2E2E2E2E2E2E2E2E2E2E2E2E2E2E2E2E2E2E2E2E2E2E2E2E2E2E2E2E2E2E2E2E2E2E2E2E2E2E2E2E2E2E2E2E2E2E2E2E2E2E2E2
310
E2E2E2E2E2E2E2E2E2E2E2E2E2E2E2E2E2E2E2E2E2E2E2E2E2E2E2E2E2E2E2E2E2E2E2E2E2E2E2E2E2E2E2E2E2E2E2E2E2E2E2E2E2E2E2E2E2F5E2E2E2E2E2E2E2E2E2E2E2E2E2E2E2F5E2E2E2E2E2E2E2E2E2E2E2F5F5E2E2E2E2E2E2E2E2E2E2E2F5E2E2E2E2E2E2E2E2E2E2E2E2E2E2E2F5E2E2E2E2E2E2E2E2E2E2E2E2
310
E2E2E2E2E2E2E2E2E2E2E2E2E2E2E2E2E2E2E2E2E2E2E2E2E2E2E2E2E2E2E2E2E2E2E2E2E2E2E2E2E2E2E2E2E2E2E2E2E2E2E2E2E2E2E2E2E2E2E2E2E2E2E2E2E2E2E2E2E2E2E2E2E2E2E2E2E2E2E2E2E2E2E2E2E2E2E2E2E2E2E2E2E2E2E2E2E2E2E2E2E2E2E2E2E2E2E2E2E2E2F5E2E2E2E2E2E2E2E2E2E2E2E2E2E2E2F5
310
E2E2E2E2E2E2E2E2E2E2E2F5F5E2E2E2E2E2E2E2E2E2E2E2F5E2E2E2E2E2E2E2E2E2E2E2E2E2E2E2F5E2E2E2E2E2E2E2E2E2E2E2E2E2E2E2E2E2E2E2E2E2E2E2E2E2E2E2E2E2E2E2E2E2E2E2E2E2E2E2E2E2E2E2E2E2E2E2E2E2E2E2E2E2E2E2E2E2E2E2E2E2E2E2E2E2E2E2E2E2E2E2E2E2E2E2E2E2E2E2E2E2E2E2E2E2E2
310
E2E2E2E2E2E2E2E2E2E2E2E2E2E2E2E2E2E2E2E2E2E2E2E2E2E2E2E2E2E2E2E2E2E2E2E2F5E2E2E2E2E2E2E2E2E2E2E2E2E2E2E2F5E2E2E2E2E2E2E2E2E2E2E2F5F5E2E2E2E2E2E2E2E2E2E2E2F5E2E2E2E2E2E2E2E2E2E2E2E2E2E2E2F5E2E2E2E2E2E2E2E2E2E2E2E2E2E2E2E2E2E2E2E2E2E2E2E2E2E2E2E2E2E2E2E2E2
310
E2E2E2E2E2E2E2E2E2E2E2E2E2E2E2E2E2E2E2E2E2E2E2E2E2E2E2E2E2E2E2E2E2E2E2E2E2E2E2E2E2E2E2E2E2E2E2E2E2E2E2E2E2E2E2E2E2E2E2E2E2E2E2E2E2E2E2E2E2E2E2E2E2E2E2E2E2E2E2E2E2E2E2E2E2E2E2E2E2F5E2E2E2E2E2E2E2E2E2E2E2E2E2E2E2F5E2E2E2E2E2E2E2E2E2E2E2F5F5E2E2E2E2E2E2E2E2
310
E2E2E2F5E2E2E2E2E2E2E2E2E2E2E2E2E2E2E2F5E2E2E2E2E2E2E2E2E2E2E2E2E2E2E2E2E2E2E2E2E2E2E2E2E2E2E2E2E2E2E2E2E2E2E2E2E2E2E2E2E2E2E2E2E2E2E2E2E2E2E2E2E2E2E2E2E2E2E2E2E2E2E2E2E2E2E2E2E2E2E2E2E2E2E2E2E2E2E2E2E2E2E2E2E2E2E2E2E2E2E2E2E2E2E2E2E2E2E2E2E2E2E2E2E2E2E2
310
E2E2E2E2E2E2E2E2E2E2E2E2E2E2E2F5E2E2E2E2E2E2E2E2E2E2E2E2E2E2E2F5E2E2E2E2E2E2E2E2E2E2E2F5F5E2E2E2E2E2E2E2E2E2E2E2F5E2E2E2E2E2E2E2E2E2E2E2E2E2E2E2F5E2E2E2E2E2E2E2E2E2E2E2E2E2E2E2E2E2E2E2E2E2E2E2E2E2E2E2E2E2E2E2E2E2E2E2E2E2E2E2E2E2E2E2E2E2E2E2E2E2E2E2E2E2E2
310
E2E2E2E2E2E2E2E2E2E2E2E2E2E2E2E2E2E2E2E2E2E2E2E2E2E2E2E2E2E2E2E2E2E2E2E2E2E2E2E2E2E2E2E2E2E2E2E2E2E2E2E2E2E2E2E2E2E2E2E2E2E2E2E2E2E2E2E2F5E2E2E2E2E2E2E2E2E2E2E2E2E2E2E2F5E2E2E2E2E2E2E2E2E2E2E2F5F5E2E2E2E2E2E2E2E2E2E2E2F5E2E2E2E2E2E2E2E2E2E2E2E2E2E2E2F5E2
310
E2E2E2E2E2E2E2E2E2E2E2E2E2E2E2E2E2E2E2E2E2E2E2E2E2E2E2E2E2E2E2E2E2E2E2E2E2E2E2E2E2E2E2E2E2E2E2E2E2E2E2E2E2E2E2E2E2E2E2E2E2E2E2E2E2E2E2E2E2E2E2E2E2E2E2E2E2E2E2E2E2E2E2E2E2E2E2E2E2E2E2E2E2E2E2E2E2E2E2E2E2E2E2E2E2E2E2E2E2E2E2E2E2E2E2E2E2E2E2E2E2F5E2E2E2E2E2
310
E2E2E2E2E2E2E2E2E2E2F5E2E2E2E2E2E2E2E2E2E2E2F5F5E2E2E2E2E2E2E2E2E2E2E2F5E2E2E2E2E2E2E2E2E2E2E2E2E2E2E2F5E2E2E2E2E2E2E2E2E2E2E2E2E2E2E2E2E2E2E2E2E2E2E2E2E2E2E2E2E2E2E2E2E2E2E2E2E2E2E2E2E2E2E2E2E2E2E2E2E2E2E2E2E2E2E2E2E2E2E2E2E2E2E2E2E2E2E2E2E2E2E2E2E2E2E2
310
E2E2E2E2E2E2E2E2E2E2E2E2E2E2E2E2E2E2E2E2E2E2E2E2E2E2E2E2E2E2E2E2E2E2E2E2E2E2E2E2E2E2E2E2E2E2E2F5E2E2E2E2E2E2E2E2E2E2E2E2E2E2E2F5E2E2E2E2E2E2E2E2E2E2E2F5F5E2E2E2E2E2E2E2E2E2E2E2E2E2E2E2E2E2E2E2E2E2E2E2E2E2E2E2F5E2E2E2E2E2E2E2E2E2E2E2E2E2E2E2E2E2E2E2E2E2E2
310
E2E2E2E2E2E2E2E2E2E2E2E2E2E2E2E2E2E2E2E2E2E2E2E2E2E2E2E2E2E2E2E2E2E2E2E2E2E2E2E2E2E2E2E2E2E2E2E2E2E2E2E2E2E2E2E2E2E2E2E2E2E2E2E2E2E2E2E2E2E2E2E2E2E2E2E2E2E2E2E2E2E2E2E2E2E2E2E2E2E2E2E2E2E2E2E2E2E2E2E2F5E2E2E2E2E2E2E2E2E2E2E2E2E2E2E2E2E2E2E2E2E2E2E2E2E2E2
310
E2F5F5E2E2E2E2E2E2E2E2E2E2E2E2E2E2E2E2E2E2E2E2E2E2E2E2E2E2E2F5E2E2E2E2E2E2E2E2E2E2E2E2E2E2E2E2E2E2E2E2E2E2E2E2E2E2E2E2E2E2E2E2E2E2E2E2E2E2E2E2E2E2E2E2E2E2E2E2E2E2E2E2E2E2E2E2E2E2E2E2E2E2E2E2E2E2E2E2E2E2E2E2E2E2E2E2E2E2E2E2E2E2E2E2E2E2E2E2E2E2E2E2E2E2E2E2
310
E2E2E2E2E2E2E2E2E2E2E2E2E2E2E2E2E2E2E2E2E2E2E2E2E2E2F5E2E2E2E2E2E2E2E2E2E2E2E2E2E2E2E2E2E2E2E2E2E2E2E2E2E2E2F5F5E2E2E2E2E2E2E2E2E2E2E2E2E2E2E2E2E2E2E2E2E2E2E2E2E2E2E2F5E2E2E2E2E2E2E2E2E2E2E2E2E2E2E2E2E2E2E2E2E2E2E2E2E2E2E2E2E2E2E2E2E2E2E2E2E2E2E2E2E2E2E2
310
E2E2E2E2E2E2E2E2E2E2E2E2E2E2E2E2E2E2E2E2E2E2E2E2E2E2E2E2E2E2E2E2E2E2E2E2E2E2E2E2E2E2E2E2E2E2E2E2E2E2E2E2E2E2E2E2E2E2E2E2E2E2E2E2E2E2E2E2E2E2E2E2E2E2E2E2E2E2E2F5E2E2E2E2E2E2E2E2E2E2E2E2E2E2E2E2E2E2E2E2E2E2E2E2E2E2E2F5F5E2E2E2E2E2E2E2E2E2E2E2E2E2E2E2E2E2E2
310
E2E2E2E2E2E2E2E2E2F5E2E2E2E2E2E2E2E2E2E2E2E2E2E2E2E2E2E2E2E2E2E2E2E2E2E2E2E2E2E2E2E2E2E2E2E2E2E2E2E2E2E2E2E2E2E2E2E2E2E2E2E2E2E2E2E2E2E2E2E2E2E2E2E2E2E2E2E2E2E2E2E2E2E2E2E2E2E2E2E2E2E2E2E2E2E2E2E2E2E2E2E2E2E2E2E2E2E2E2E2E2E2E2E2E2E2E2E2E2E2E2E2E2E2E2E2E2
310
E2E2E2E2E2F5E2E2E2E2E2E2E2E2E2E2E2E2E2E2E2E2E2E2E2E2E2E2E2E2E2E2E2F5F5E2E2E2E2E2E2E2E2E2E2E2E2E2E2E2E2E2E2E2E2E2E2E2E2E2E2E2F5E2E2E2E2E2E2E2E2E2E2E2E2E2E2E2E2E2E2E2E2E2E2E2E2E2E2E2E2E2E2E2E2E2E2E2E2E2E2E2E2E2E2E2E2E2E2E2E2E2E2E2E2E2E2E2E2E2E2E2E2E2E2E2E2
310
E2E2E2E2E2E2E2E2E2E2E2E2E2E2E2E2E2E2E2E2E2E2E2E2E2E2E2E2E2E2E2E2E2E2E2E2E2E2E2E2E2E2E2E2E2E2E2E2E2E2E2E2E2E2E2E2E2E2F5E2E2E2E2E2E2E2E2E2E2E2E2E2E2E2E2E2E2E2E2E2E2E2E2E2E2E2F5F5E2E2E2E2E2E2E2E2E2E2E2E2E2E2E2E2E2E2E2E2E2E2E2E2E2E2E2F5E2E2E2E2E2E2E2E2E2E2E2
310
E2E2E2E2E2E2E2E2E2E2E2E2E2E2E2E2E2E2E2E2E2E2E2E2E2E2E2E2E2E2E2E2E2E2E2E2E2E2E2E2E2E2E2E2E2E2E2E2E2E2E2E2E2E2E2E2E2E2E2E2E2E2E2E2E2E2E2E2E2E2E2E2E2E2E2E2E2E2E2E2E2E2E2E2E2E2E2E2E2E2E2E2E2E2E2E2E2E2E2E2E2E2E2E2E2E2E2E2E2E2E2F5E2E2E2E2E2E2E2E2E2E2E2E2E2E2E2
310
E2E2E2E2E2E2E2E2E2E2E2E2F5F5E2E2E2E2E2E2E2E2E2E2E2E2E2E2E2E2E2E2E2E2E2E2E2E2E2E2E2F5E2E2E2E2E2E2E2E2E2E2E2E2E2E2E2E2E2E2E2E2E2E2E2E2E2E2E2E2E2E2E2E2E2E2E2E2E2E2E2E2E2E2E2E2E2E2E2E2E2E2E2E2E2E2E2E2E2E2E2E2E2E2E2E2E2E2E2E2E2E2E2E2E2E2E2E2E2E2E2E2E2E2E2E2E2
310
E2E2E2E2E2E2E2E2E2E2E2E2E2E2E2E2E2E2E2E2E2E2E2E2E2E2E2E2E2E2E2E2E2E2E2E2E2F5E2E2E2E2E2E2E2E2E2E2E2E2E2E2E2E2E2E2E2E2E2E2E2E2E2E2E2F5F5E2E2E2E2E2E2E2E2E2E2E2E2E2E2E2E2E2E2E2E2E2E2E2E2E2E2E2F5E2E2E2E2E2E2E2E2E2E2E2E2E2E2E2E2E2E2E2E2E2E2E2E2E2E2E2E2E2E2E2E2
310
E2E2E2E2E2E2E2E2E2E2E2E2E2E2E2E2E2E2E2E2E2E2E2E2E2E2E2E2E2E2E2E2E2E2E2E2E2E2E2E2E2E2E2E2E2E2E2E2E2E2E2E2E2E2E2E2E2E2E2E2E2E2E2E2E2E2E2E2E2E2E2E2E2E2E2E2E2E2E2E2E2E2E2E2E2E2E2E2E2E2F5E2E2E2E2E2E2E2E2E2E2E2E2E2E2E2E2E2E2E2E2E2E2E2E2E2E2E2F5F5E2E2E2E2E2E2E2
310
E2E2E2E2E2E2E2E2E2E2E2E2E2E2E2E2E2E2E2E2F5E2E2E2E2E2E2E2E2E2E2E2E2E2E2E2E2E2E2E2E2E2E2E2E2E2E2E2E2E2E2E2E2E2E2E2E2E2E2E2E2E2E2E2E2E2E2E2E2E2E2E2E2E2E2E2E2E2E2E2E2E2E2E2E2E2E2E2E2E2E2E2E2E2E2E2E2E2E2E2E2E2E2E2E2E2E2E2E2E2E2E2E2E2E2E2E2E2E2E2E2E2E2E2E2E2E2
310
E2E2E2E2E2E2E2E2E2E2E2E2E2E2E2E2F5E2E2E2E2E2E2E2E2E2E2E2E2E2E2E2E2E2E2E2E2E2E2E2E2E2E2E2F5F5E2E2E2E2E2E2E2E2E2E2E2F5E2E2E2E2E2E2E2E2E2E2E2E2E2E2E2F5E2E2E2E2E2E2E2E2E2E2E2E2E2E2E2E2E2E2E2E2E2E2E2E2E2E2E2E2E2E2E2E2E2E2E2E2E2E2E2E2E2E2E2E2E2E2E2E2E2E2E2E2E2
310
E2E2E2E2E2E2E2E2E2E2E2E2E2E2E2E2E2E2E2E2E2E2E2E2E2E2E2E2E2E2E2E2E2E2E2E2E2E2E2E2E2E2E2E2E2E2E2E2E2E2E2E2E2E2E2E2E2E2E2E2E2E2E2E2E2E2E2E2E2F5E2E2E2E2E2E2E2E2E2E2E2E2E2E2E2F5E2E2E2E2E2E2E2E2E2E2E2F5F5E2E2E2E2E2E2E2E2E2E2E2F5E2E2E2E2E2E2E2E2E2E2E2E2E2E2E2F5
310
E2E2E2E2E2E2E2E2E2E2E2E2E2E2E2E2E2E2E2E2E2E2E2E2E2E2E2E2E2E2E2E2E2E2E2E2E2E2E2E2E2E2E2E2E2E2E2E2E2E2E2E2E2E2E2E2E2E2E2E2E2E2E2E2E2E2E2E2E2E2E2E2E2E2E2E2E2E2E2E2E2E2E2E2E2E2E2E2E2E2E2E2E2E2E2E2E2E2E2E2E2E2E2E2E2E2E2E2E2E2E2E2E2E2E2E2E2E2E2E2E2E2F5E2E2E2E2
310
E2E2E2E2E2E2E2E2E2E2E2F5E2E2E2E2E2E2E2E2E2E2E2F5F5E2E2E2E2E2E2E2E2E2E2E2F5E2E2E2E2E2E2E2E2E2E2E2E2E2E2E2F5E2E2E2E2E2E2E2E2E2E2E2E2E2E2E2E2E2E2E2E2E2E2E2E2E2E2E2E2E2E2E2E2E2E2E2E2E2E2E2E2E2E2E2E2E2E2E2E2E2E2E2E2E2E2E2E2E2E2E2E2E2E2E2E2E2E2E2E2E2E2E2E2E2E2
310
E2E2E2E2E2E2E2E2E2E2E2E2E2E2E2E2E2E2E2E2E2E2E2E2E2E2E2E2E2E2E2E2E2E2E2E2E2E2E2E2E2E2E2E2E2E2E2E2F5E2E2E2E2E2E2E2E2E2E2E2E2E2E2E2F5E2E2E2E2E2E2E2E2E2E2E2F5F5E2E2E2E2E2E2E2E2E2E2E2F5E2E2E2E2E2E2E2E2E2E2E2E2E2E2E2F5E2E2E2E2E2E2E2E2E2E2E2E2E2E2E2E2E2E2E2E2E2
310
E2E2E2E2E2E2E2E2E2E2E2E2E2E2E2E2E2E2E2E2E2E2E2E2E2E2E2E2E2E2E2E2E2E2E2E2E2E2E2E2E2E2E2E2E2E2E2E2E2E2E2E2E2E2E2E2E2E2E2E2E2E2E2E2E2E2E2E2E2E2E2E2E2E2E2E2E2E2E2E2E2E2E2E2E2E2E2E2E2E2E2E2E2E2E2E2E2E2E2E2E2F5E2E2E2E2E2E2E2E2E2E2E2E2E2E2E2F5E2E2E2E2E2E2E2E2E2
310
E2E2F5F5E2E2E2E2E2E2E2E2E2E2E2F5E2E2E2E2E2E2E2E2E2E2E2E2E2E2E2F5E2E2E2E2E2E2E2E2E2E2E2E2E2E2E2E2E2E2E2E2E2E2E2E2E2E2E2E2E2E2E2E2E2E2E2E2E2E2E2E2E2E2E2E2E2E2E2E2E2E2E2E2E2E2E2E2E2E2E2E2E2E2E2E2E2E2E2E2E2E2E2E2E2E2E2E2E2E2E2E2E2E2E2E2E2E2E2E2E2E2E2E2E2E2E2
310
E2E2E2E2E2E2E2E2E2E2E2E2E2E2E2E2E2E2E2E2E2E2E2E2E2E2E2F5E2E2E2E2E2E2E2E2E2E2E2E2E2E2E2F5E2E2E2E2E2E2E2E2E2E2E2F5F5E2E2E2E2E2E2E2E2E2E2E2F5E2E2E2E2E2E2E2E2E2E2E2E2E2E2E2F5E2E2E2E2E2E2E2E2E2E2E2E2E2E2E2E2E2E2E2E2E2E2E2E2E2E2E2E2E2E2E2E2E2E2E2E2E2E2E2E2E2E2
310
E2E2E2E2E2E2E2E2E2E2E2E2E2E2E2E2E2E2E2E2E2E2E2E2E2E2E2E2E2E2E2E2E2E2E2E2E2E2E2E2E2E2E2E2E2E2E2E2E2E2E2E2E2E2E2E2E2E2E2E2E2E2E2E2E2E2E2E2E2E2E2E2E2E2E2E2E2E2E2E2F5E2E2E2E2E2E2E2E2E2E2E2E2E2E2E2F5E2E2E2E2E2E2E2E2E2E2E2F5F5E2E2E2E2E2E2E2E2E2E2E2F5E2E2E2E2E2
310
E2E2E2E2E2E2E2E2E2E2F5E2E2E2E2E2E2E2E2E2E2E2E2E2E2E2E2E2E2E2E2E2E2E2E2E2E2E2E2E2E2E2E2E2E2E2E2E2E2E2E2E2E2E2E2E2E2E2E2E2E2E2E2E2E2E2E2E2E2E2E2E2E2E2E2E2E2E2E2E2E2E2E2E2E2E2E2E2E2E2E2E2E2E2E2E2E2E2E2E2E2E2E2E2E2E2E2E2E2E2E2E2E2E2E2E2E2E2E2E2E2E2E2E2E2E2E2
310
E2E2E2E2E2E2F5E2E2E2E2E2E2E2E2E2E2E2E2E2E2E2F5E2E2E2E2E2E2E2E2E2E2E2F5F5E2E2E2E2E2E2E2E2E2E2E2F5E2E2E2E2E2E2E2E2E2E2E2E2E2E2E2F5E2E2E2E2E2E2E2E2E2E2E2E2E2E2E2E2E2E2E2E2E2E2E2E2E2E2E2E2E2E2E2E2E2E2E2E2E2E2E2E2E2E2E2E2E2E2E2E2E2E2E2E2E2E2E2E2E2E2E2E2E2E2E2
310
E2E2E2E2E2E2E2E2E2E2E2E2E2E2E2E2E2E2E2E2E2E2E2E2E2E2E2E2E2E2E2E2E2E2E2E2E2E2E2E2E2E2E2E2E2E2E2E2E2E2E2E2E2E2E2E2E2E2E2F5E2E2E2E2E2E2E2E2E2E2E2E2E2E2E2F5E2E2E2E2E2E2E2E2E2E2E2F5F5E2E2E2E2E2E2E2E2E2E2E2F5E2E2E2E2E2E2E2E2E2E2E2E2E2E2E2F5E2E2E2E2E2E2E2E2E2E2
310
E2E2E2E2E2E2E2E2E2E2E2E2E2E2E2E2E2E2E2E2E2E2E2E2E2E2E2E2E2E2E2E2E2E2E2E2E2E2E2E2E2E2E2E2E2E2E2E2E2E2E2E2E2E2E2E2E2E2E2E2E2E2E2E2E2E2E2E2E2E2E2E2E2E2E2E2E2E2E2E2E2E2E2E2E2E2E2E2E2E2E2E2E2E2E2E2E2E2E2E2E2E2E2E2E2E2E2E2E2E2E2E2F5E2E2E2E2E2E2E2E2E2E2E2E2E2E2
310
E2F5E2E2E2E2E2E2E2E2E2E2E2F5F5E2E2E2E2E2E2E2E2E2E2E2F5E2E2E2E2E2E2E2E2E2E2E2E2E2E2E2F5E2E2E2E2E2E2E2E2E2E2E2E2E2E2E2E2E2E2E2E2E2E2E2E2E2E2E2E2E2E2E2E2E2E2E2E2E2E2E2E2E2E2E2E2E2E2E2E2E2E2E2E2E2E2E2E2E2E2E2E2E2E2E2E2E2E2E2E2E2E2E2E2E2E2E2E2E2E2E2E2E2E2E2E2
310
E2E2E2E2E2E2E2E2E2E2E2E2E2E2E2E2E2E2E2E2E2E2E2E2E2E2E2E2E2E2E2E2E2E2E2E2E2E2F5E2E2E2E2E2E2E2E2E2E2E2E2E2E2E2F5E2E2E2E2E2E2E2E2E2E2E2F5F5E2E2E2E2E2E2E2E2E2E2E2F5E2E2E2E2E2E2E2E2E2E2E2E2E2E2E2F5E2E2E2E2E2E2E2E2E2E2E2E2E2E2E2E2E2E2E2E2E2E2E2E2E2E2E2E2E2E2E2
310
E2E2E2E2E2E2E2E2E2E2E2E2E2E2E2E2E2E2E2E2E2E2E2E2E2E2E2E2E2E2E2E2E2E2E2E2E2E2E2E2E2E2E2E2E2E2E2E2E2E2E2E2E2E2E2E2E2E2E2E2E2E2E2E2E2E2E2E2E2E2E2E2E2E2E2E2E2E2E2E2E2E2E2E2E2E2E2E2E2E2E2F5E2E2E2E2E2E2E2E2E2E2E2E2E2E2E2F5E2E2E2E2E2E2E2E2E2E2E2F5F5E2E2E2E2E2E2
310
E2E2E2E2E2F5E2E2E2E2E2E2E2E2E2E2E2E2E2E2E2F5E2E2E2E2E2E2E2E2E2E2E2E2E2E2E2E2E2E2E2E2E2E2E2E2E2E2E2E2E2E2E2E2E2E2E2E2E2E2E2E2E2E2E2E2E2E2E2E2E2E2E2E2E2E2E2E2E2E2E2E2E2E2E2E2E2E2E2E2E2E2E2E2E2E2E2E2E2E2E2E2E2E2E2E2E2E2E2E2E2E2E2E2E2E2E2E2E2E2E2E2E2E2E2E2E2
310
E2E2E2E2E2E2E2E2E2E2E2E2E2E2E2E2E2F5E2E2E2E2E2E2E2E2E2E2E2E2E2E2E2F5E2E2E2E2E2E2E2E2E2E2E2F5F5E2E2E2E2E2E2E2E2E2E2E2F5E2E2E2E2E2E2E2E2E2E2E2E2E2E2E2F5E2E2E2E2E2E2E2E2E2E2E2E2E2E2E2E2E2E2E2E2E2E2E2E2E2E2E2E2E2E2E2E2E2E2E2E2E2E2E2E2E2E2E2E2E2E2E2E2E2E2E2E2
310
E2E2E2E2E2E2E2E2E2E2E2E2E2E2E2E2E2E2E2E2E2E2E2E2E2E2E2E2E2E2E2E2E2E2E2E2E2E2E2E2E2E2E2E2E2E2E2E2E2E2E2E2E2E2E2E2E2E2E2E2E2E2E2E2E2E2E2E2E2E2F5E2E2E2E2E2E2E2E2E2E2E2E2E2E2E2F5E2E2E2E2E2E2E2E2E2E2E2F5F5E2E2E2E2E2E2E2E2E2E2E2F5E2E2E2E2E2E2E2E2E2E2E2E2E2E2E2
310
F5E2E2E2E2E2E2E2E2E2E2E2E2E2E2E2E2E2E2E2E2E2E2E2E2E2E2E2E2E2E2E2E2E2E2E2E2E2E2E2E2E2E2E2E2E2E2E2E2E2E2E2E2E2E2E2E2E2E2E2E2E2E2E2E2E2E2E2E2E2E2E2E2E2E2E2E2E2E2E2E2E2E2E2E2E2E2E2E2E2E2E2E2E2E2E2E2E2E2E2E2E2E2E2E2E2E2E2E2E2E2E2E2E2E2E2E2E2E2E2E2E2E2F5E2E2E2
310
E2E2E2E2E2E2E2E2E2E2E2E2F5E2E2E2E2E2E2E2E2E2E2E2F5F5E2E2E2E2E2E2E2E2E2E2E2F5E2E2E2E2E2E2E2E2E2E2E2E2E2E2E2F5E2E2E2E2E2E2E2E2E2E2E2E2E2E2E2E2E2E2E2E2E2E2E2E2E2E2E2E2E2E2E2E2E2E2E2E2E2E2E2E2E2E2E2E2E2E2E2E2E2E2E2E2E2E2E2E2E2E2E2E2E2E2E2E2E2E2E2E2E2E2E2E2E2
310
E2E2E2E2E2E2E2E2E2E2E2E2E2E2E2E2E2E2E2E2E2E2E2E2E2E2E2E2E2E2E2E2E2E2E2E2E2E2E2E2E2E2E2E2E2E2E2E2E2F5E2E2E2E2E2E2E2E2E2E2E2E2E2E2E2F5E2E2E2E2E2E2E2E2E2E2E2F5F5E2E2E2E2E2E2E2E2E2E2E2E2E2E2E2E2E2E2E2E2E2E2E2E2E2E2E2F5E2E2E2E2E2E2E2E2E2E2E2E2E2E2E2E2E2E2E2E2
310
E2E2E2E2E2E2E2E2E2E2E2E2E2E2E2E2E2E2E2E2E2E2E2E2E2E2E2E2E2E2E2E2E2E2E2E2E2E2E2E2E2E2E2E2E2E2E2E2E2E2E2E2E2E2E2E2E2E2E2E2E2E2E2E2E2E2E2E2E2E2E2E2E2E2E2E2E2E2E2E2E2E2E2E2E2E2E2E2E2E2E2E2E2E2E2E2E2E2E2E2E2E2F5E2E2E2E2E2E2E2E2E2E2E2E2E2E2E2E2E2E2E2E2E2E2E2E2
310
E2E2E2F5F5E2E2E2E2E2E2E2E2E2E2E2E2E2E2E2E2E2E2E2E2E2E2E2E2E2E2E2F5E2E2E2E2E2E2E2E2E2E2E2E2E2E2E2E2E2E2E2E2E2E2E2E2E2E2E2E2E2E2E2E2E2E2E2E2E2E2E2E2E2E2E2E2E2E2E2E2E2E2E2E2E2E2E2E2E2E2E2E2E2E2E2E2E2E2E2E2E2E2E2E2E2E2E2E2E2E2E2E2E2E2E2E2E2E2E2E2E2E2E2E2E2E2
310
E2E2E2E2E2E2E2E2E2E2E2E2E2E2E2E2E2E2E2E2E2E2E2E2E2E2E2E2F5E2E2E2E2E2E2E2E2E2E2E2E2E2E2E2E2E2E2E2E2E2E2E2E2E2E2E2F5F5E2E2E2E2E2E2E2E2E2E2E2E2E2E2E2E2E2E2E2E2E2E2E2E2E2E2E2F5E2E2E2E2E2E2E2E2E2E2E2E2E2E2E2E2E2E2E2E2E2E2E2E2E2E2E2E2E2E2E2E2E2E2E2E2E2E2E2E2E2
310
E2E2E2E2E2E2E2E2E2E2E2E2E2E2E2E2E2E2E2E2E2E2E2E2E2E2E2E2E2E2E2E2E2E2E2E2E2E2E2E2E2E2E2E2E2E2E2E2E2E2E2E2E2E2E2E2E2E2E2E2E2E2E2E2E2E2E2E2E2E2E2E2E2E2E2E2E2E2E2E2E2F5E2E2E2E2E2E2E2E2E2E2E2E2E2E2E2E2E2E2E2E2E2E2E2E2E2E2E2F5F5E2E2E2E2E2E2E2E2E2E2E2E2E2E2E2E2
310
E2E2E2E2E2E2E2E2E2E2E2F5F5F5F5F5F5F5F5F5F5F5F5F5F5F5F5F5F5F5F5F5F5F5F5F5F5F5F5F5F5F5F5F5F5F5F5F5F5F5F5F5F5F5F5F5F5F5F5F5F5F5F5F5F5F5F5F5F5F5F5F5F5F5F5F5F5F5F5F5F5F5F5F5F5F5F5F5F5F5F5F5F5F5F5F5F5F5F5F5F5F5F5F5F5F5F5F5F5F5F5F5F5F5F5F5F5F5F5F5F5F5F5F5F5F5F5
310
F5F5F5F5F5F5F5F5E2E2E2E2E2E2E2E2E2E2E2E2E2E2E2E2E2E2E2E2E2E2E2E2E2E2E2F5F5E2E2E2E2E2E2E2E2E2E2E2E2E2E2E2E2E2E2E2E2E2E2E2E2E2E2E2E2E2E2E2E2E2E2E2E2E2E2E2E2E2E2E2E2E2E2E2E2E2E2E2E2E2E2E2E2E2E2E2E2E2E2E2E2E2E2E2E2E2E2E2E2E2E2E2E2E2E2E2E2E2E2E2E2E2E2E2E2E2E2
310
E2E2E2E2E2E2E2E2E2E2E2E2E2E2E2E2E2E2E2E2E2E2E2E2E2E2E2E2E2E2E2E2E2E2E2E2E2E2E2E2E2E2E2E2E2E2E2E2E2E2E2E2E2E2E2E2E2E2E2E2E2E2E2E2E2E2E2E2E2E2E2E2E2E2E2E2E2E2E2E2E2E2E2E2E2E2E2E2F5F5E2E2E2E2E2E2E2E2E2E2E2E2E2E2E2E2E2E2E2E2E2E2E2E2E2E2E2E2E2E2E2E2E2E2E2E2E2
310
E2E2E2E2E2E2E2E2E2E2E2E2E2E2E2E2E2E2E2E2E2E2E2E2E2E2E2E2E2E2E2E2E2E2E2E2E2E2E2E2E2E2E2E2E2E2E2E2E2E2E2E2E2E2E2E2E2E2E2E2E2E2E2E2E2E2E2E2E2E2E2E2E2E2E2E2E2E2E2E2E2E2E2E2E2E2E2E2E2E2E2E2E2E2E2E2E2E2E2E2E2E2E2E2E2E2E2E2E2E2E2E2E2E2E2E2E2E2E2E2E2E2E2E2E2E2E2
310
E2E2E2E2E2E2E2E2E2E2E2E2E2E2F5F5E2E2E2E2E2E2E2E2E2E2E2E2E2E2E2E2E2E2E2E2E2E2E2E2E2E2E2E2E2E2E2E2E2E2E2E2E2E2E2E2E2E2E2E2E2E2E2E2E2E2E2E2E2E2E2E2E2E2E2E2E2E2E2E2E2E2E2E2E2E2E2E2E2E2E2E2E2E2E2E2E2E2E2E2E2E2E2E2E2E2E2E2E2E2E2E2E2E2E2E2E2E2E2E2E2E2E2E2E2E2E2
310
E2E2E2E2E2E2E2E2E2E2E2E2E2E2E2E2E2E2E2E2E2E2E2E2E2E2E2E2E2E2E2E2E2E2E2E2E2E2E2E2E2E2E2E2E2E2E2E2E2E2E2E2E2E2E2E2E2E2E2E2E2E2E2E2E2E2E2F5F5E2E2E2E2E2E2E2E2E2E2E2E2E2E2E2E2E2E2E2E2E2E2E2E2E2E2E2E2E2E2E2E2E2E2E2E2E2E2E2E2E2E2E2E2E2E2E2E2E2E2E2E2E2E2E2E2E2E2
310
E2E2E2E2E2E2E2E2E2E2E2E2E2E2E2E2E2E2E2E2E2E2E2E2E2E2E2E2E2E2E2E2E2E2E2E2E2E2E2E2E2E2E2E2E2E2E2E2E2E2E2E2E2E2E2E2E2E2E2E2E2E2E2E2E2E2E2E2E2E2E2E2E2E2E2E2E2E2E2E2E2E2E2E2E2E2E2E2E2E2E2E2E2E2E2E2E2E2E2E2E2E2E2E2E2E2E2E2E2E2E2E2E2E2E2E2E2E2E2E2F5F5E2E2E2E2E2
310
E2E2E2E2E2E2F5E2E2E2E2E2E2E2E2E2E2E2E2E2E2E2E2E2E2E2E2E2E2E2E2E2E2E2E2E2E2E2E2E2E2E2E2E2E2E2E2E2E2E2E2E2E2E2E2E2E2E2E2E2E2E2E2E2E2E2E2E2E2E2E2E2E2E2E2E2E2E2E2E2E2E2E2E2E2E2E2E2E2E2E2E2E2E2E2E2E2E2E2E2E2E2E2E2E2E2E2E2E2E2E2E2E2E2E2E2E2E2E2E2E2E2E2E2E2E2E2
310
E2E2E2E2E2E2E2E2E2E2E2E2E2E2E2E2E2E2E2E2E2E2E2E2E2E2E2E2E2E2E2E2E2E2F5E2E2E2E2E2E2E2E2E2E2E2F5F5E2E2E2E2E2E2E2E2E2E2E2F5E2E2E2E2E2E2E2E2E2E2E2E2E2E2E2E2E2E2E2E2E2E2E2E2E2E2E2E2E2E2E2E2E2E2E2E2E2E2E2E2E2E2E2E2E2E2E2E2E2E2E2E2E2E2E2E2E2E2E2E2E2E2E2E2E2E2E2
310
E2E2E2E2E2E2E2E2E2E2E2E2E2E2E2E2E2E2E2E2E2E2E2E2E2E2E2E2E2E2E2E2E2E2E2E2E2E2E2E2E2E2E2E2E2E2E2E2E2E2E2E2E2E2E2E2E2E2E2E2E2E2E2E2E2E2E2E2E2E2E2E2E2E2E2E2E2E2E2E2E2E2E2E2E2E2E2F5E2E2E2E2E2E2E2E2E2E2E2F5F5E2E2E2E2E2E2E2E2E2E2E2F5E2E2E2E2E2E2E2E2E2E2E2E2E2E2
310
E2E2E2E2E2E2E2E2E2E2E2E2E2E2E2E2E2E2E2E2E2E2E2E2E2E2E2E2E2E2E2E2E2E2E2E2E2E2E2E2E2E2E2E2E2E2E2E2E2E2E2E2E2E2E2E2E2E2E2E2E2E2E2E2E2E2E2E2E2E2E2E2E2E2E2E2E2E2E2E2E2E2E2E2E2E2E2E2E2E2E2E2E2E2E2E2E2E2E2E2E2E2E2E2E2E2E2E2E2E2E2E2E2E2E2E2E2E2E2E2E2E2E2E2E2E2E2
310
E2E2E2E2E2E2E2E2E2E2E2E2E2F5E2E2E2E2E2E2E2E2E2E2E2F5F5E2E2E2E2E2E2E2E2E2E2E2F5E2E2E2E2E2E2E2E2E2E2E2E2E2E2E2E2E2E2E2E2E2E2E2E2E2E2E2E2E2E2E2E2E2E2E2E2E2E2E2E2E2E2E2E2E2E2E2E2E2E2E2E2E2E2E2E2E2E2E2E2E2E2E2E2E2E2E2E2E2E2E2E2E2E2E2E2E2E2E2E2E2E2E2E2E2E2E2E2
310
E2E2E2E2E2E2E2E2E2E2E2E2E2E2E2E2E2E2E2E2E2E2E2E2E2E2E2E2E2E2E2E2E2E2E2E2E2E2E2E2E2E2E2E2E2E2E2E2E2E2E2E2E2E2E2E2E2E2E2E2E2E2E2E2E2E2F5E2E2E2E2E2E2E2E2E2E2E2F5F5E2E2E2E2E2E2E2E2E2E2E2F5E2E2E2E2E2E2E2E2E2E2E2E2E2E2E2E2E2E2E2E2E2E2E2E2E2E2E2E2E2E2E2E2E2E2E2
310
E2E2E2E2E2E2E2E2E2E2E2E2E2E2E2E2E2E2E2E2E2E2E2E2E2E2E2E2E2E2E2E2E2E2E2E2E2E2E2E2E2E2E2E2E2E2E2E2E2E2E2E2E2E2E2E2E2E2E2E2E2E2E2E2E2E2E2E2E2E2E2E2E2E2E2E2E2E2E2E2E2E2E2E2E2E2E2E2E2E2E2E2E2E2E2E2E2E2E2E2E2E2E2E2E2E2E2E2E2E2E2E2E2E2E2E2E2E2E2F5E2E2E2E2E2E2E2
310
E2E2E2E2F5F5E2E2E2E2E2E2E2E2E2E2E2F5E2E2E2E2E2E2E2E2E2E2E2E2E2E2E2E2E2E2E2E2E2E2E2E2E2E2E2E2E2E2E2E2E2E2E2E2E2E2E2E2E2E2E2E2E2E2E2E2E2E2E2E2E2E2E2E2E2E2E2E2E2E2E2E2E2E2E2E2E2E2E2E2E2E2E2E2E2E2E2E2E2E2E2E2E2E2E2E2E2E2E2E2E2E2E2E2E2E2E2E2E2E2E2E2E2E2E2E2E2
310
E2E2E2E2E2E2E2E2E2E2E2E2E2E2E2E2E2E2E2E2E2E2E2E2E2E2E2E2E2E2E2E2E2E2E2E2E2E2E2E2E2E2E2E2E2F5E2E2E2E2E2E2E2E2E2E2E2F5F5E2E2E2E2E2E2E2E2E2E2E2F5E2E2E2E2E2E2E2E2E2E2E2E2E2E2E2E2E2E2E2E2E2E2E2E2E2E2E2E2E2E2E2E2E2E2E2E2E2E2E2E2E2E2E2E2E2E2E2E2E2E2E2E2E2E2E2E2
310
E2E2E2E2E2E2E2E2E2E2E2E2E2E2E2E2E2E2E2E2E2E2E2E2E2E2E2E2E2E2E2E2E2E2E2E2E2E2E2E2E2E2E2E2E2E2E2E2E2E2E2E2E2E2E2E2E2E2E2E2E2E2E2E2E2E2E2E2E2E2E2E2E2E2E2E2E2E2E2E2E2E2E2E2E2E2E2E2E2E2E2E2E2E2E2E2E2E2F5E2E2E2E2E2E2E2E2E2E2E2F5F5E2E2E2E2E2E2E2E2E2E2E2F5F5F5F5
310
F5F5F5F5F5E2E2E2E2E2E2E2E2E2F5F5F5F5F5F5F5F5F5F5F5F5F5F5F5F5F5E2E2E2E2E2E2E2E2E2F5F5F5F5F5F5F5F5F5F5F5F5F5F5F5F5E2E2E2E2E2E2E2E2E2E2F5F5F5F5F5F5F5F5F5F5F5F5F5F5F5F5E2E2E2E2E2E2E2E2E2E2F5F5F5F5F5F5F5F5F5F5F5F5F5F5F5F5E2E2E2E2E2E2E2E2E2F5F5F5F5F5F5F5F5F5F5
310
F5F5F5F5F5F5F5E2E2E2E2E2E2E2E2E2F5F5F5F5F5F5F5F5F5E2E2E2E2E2E2E2E2E2E2E2F5F5E2E2E2E2E2E2E2E2E2E2E2E2E2E2E2E2E2E2E2E2E2E2E2E2E2E2E2E2E2E2E2E2E2E2E2E2E2E2E2E2E2E2E2E2E2E2E2E2E2E2E2E2E2E2E2E2E2E2E2E2E2E2E2E2E2E2E2E2E2E2E2E2E2E2E2E2E2E2E2E2E2E2E2E2E2E2E2E2E2
310
E2E2E2E2E2E2E2E2E2E2E2E2E2E2E2E2E2E2E2E2E2E2E2E2E2E2E2E2E2E2E2E2E2E2E2E2E2E2E2E2E2E2E2E2E2E2E2E2E2E2E2E2E2E2E2E2E2E2E2E2E2E2E2E2E2E2E2E2E2E2E2E2E2E2E2E2E2E2E2E2E2E2E2E2E2E2E2E2E2F5F5E2E2E2E2E2E2E2E2E2E2E2E2E2E2E2E2E2E2E2E2E2E2E2E2E2E2E2E2E2E2E2E2E2E2E2E2
310
E2E2E2E2E2E2E2E2E2E2E2E2E2E2E2E2E2E2E2E2E2E2E2E2E2E2E2E2E2E2E2E2E2E2E2E2E2E2E2E2E2E2E2E2E2E2E2E2E2E2E2E2E2E2E2E2E2E2E2E2E2E2E2E2E2E2E2E2E2E2E2E2E2E2E2E2E2E2E2E2E2E2E2E2E2E2E2E2E2E2E2E2E2E2E2E2E2E2E2E2E2E2E2E2E2E2E2E2E2E2E2E2E2E2E2E2E2E2E2E2E2E2E2E2E2E2E2
310
E2E2E2E2E2E2E2E2E2E2E2E2E2E2E2F5F5E2E2E2E2E2E2E2E2E2E2E2E2E2E2E2E2E2E2E2E2E2E2E2E2E2E2E2E2E2E2E2E2E2E2E2E2E2E2E2E2E2E2E2E2E2E2E2E2E2E2E2E2E2E2E2E2E2E2E2E2E2E2E2E2E2E2E2E2E2E2E2E2E2E2E2E2E2E2E2E2E2E2E2E2E2E2E2E2E2E2E2E2E2E2E2E2E2E2E2E2E2E2E2E2E2E2E2E2E2E2
310
E2E2E2E2E2E2E2E2E2E2E2E2E2E2E2E2E2E2E2E2E2E2E2E2E2E2E2E2E2E2E2E2E2E2E2E2E2E2E2E2E2E2E2E2E2E2E2E2E2E2E2E2E2E2E2E2E2E2E2E2E2E2E2E2E2E2E2E2F5F5F5F5F5F5F5F5F5F5F5F5F5F5F5F5F5F5F5F5F5F5F5F5F5F5F5F5F5F5F5F5F5F5F5F5F5F5F5F5F5F5F5F5F5F5F5F5F5F5F5F5F5F5F5F5F5F5F5
310
F5F5F5F5F5F5F5F5F5F5F5F5F5F5F5F5F5F5F5F5F5F5F5F5F5F5F5F5F5F5F5F5F5F5F5F5F5F5F5F5F5F5F5F5F5F5F5F5F5F5F5F5F5F5F5F5F5F5F5F5F5F5F5F5F5F5F5F5F5F5F5F5F5F5F5F5F5F5F5F5F5F5F5F5F5F5F5F5F5F5F5F5F5F5F5F5F5F5F5F5F5F5F5F5F5F5F5F5F5F5F5F5F5F5F5F5F5F5F5F5F5F5EFEFEFEFEF
310
EFEFEFEFEFEFEFEFEFEFEFEFEFEFEFEFEFEFEFEFEFEFEFEFEFEFEFEFEFEFEFEFEFEFEFEFEFEFEFEFEFEFEFEFEFEFEFEFEFEFEFEFEFEFEFEFEFEFEFEFEFEFEFEFEFEFEFEFEFEFEFEFEFEFEFEFEFEFEFEFEFEFEFEFEFEFEFEFEFEFEFEFEFEFEFEFEFEFEFEFEFEFEFEFEFEFEFEFEFEFEFEFEFEFEFEFEFEFEFEFEFEFEFEFEFEFEF
310
EFEFEFEFEFEFEFEFEFEFEFEFEFEFEFEFEFEFEFEFEFEFEFEFEFEFEFEFEFEFEFEFEFEFEFEFEFEFEFEFEFEFEFEFEFEFEFEF
  0
ENDSEC
  0
EOF
