  0
SECTION
  2
HEADER
  9
$ACADVER
  1
AC1021
  9
$ACADMAINTVER
 70
     1
  9
$DWGCODEPAGE
  3
ANSI_1252
  9
$LASTSAVEDBY
  1
BJB
  9
$INSBASE
 10
-6441.848698920317
 20
-26635.19437598874
 30
0.0
  9
$EXTMIN
 10
-8741.897801477078
 20
-28536.48479293446
 30
-0.0000000000000058
  9
$EXTMAX
 10
-6198.130075581721
 20
-26633.69831844433
 30
0.0000000000000104
  9
$LIMMIN
 10
0.0
 20
0.0
  9
$LIMMAX
 10
420.0
 20
297.0
  9
$ORTHOMODE
 70
     1
  9
$REGENMODE
 70
     1
  9
$FILLMODE
 70
     1
  9
$QTEXTMODE
 70
     0
  9
$MIRRTEXT
 70
     0
  9
$LTSCALE
 40
100.0
  9
$ATTMODE
 70
     1
  9
$TEXTSIZE
 40
536.1425458167722
  9
$TRACEWID
 40
1.0
  9
$TEXTSTYLE
  7
Standard
  9
$CLAYER
  8
Access .3
  9
$CELTYPE
  6
ByLayer
  9
$CECOLOR
 62
   256
  9
$CELTSCALE
 40
1.0
  9
$DISPSILH
 70
     0
  9
$DIMSCALE
 40
10.0
  9
$DIMASZ
 40
2.5
  9
$DIMEXO
 40
1.0
  9
$DIMDLI
 40
1.0
  9
$DIMRND
 40
0.0
  9
$DIMDLE
 40
2.0
  9
$DIMEXE
 40
2.0
  9
$DIMTP
 40
0.0
  9
$DIMTM
 40
0.0
  9
$DIMTXT
 40
1.8
  9
$DIMCEN
 40
2.5
  9
$DIMTSZ
 40
0.0
  9
$DIMTOL
 70
     0
  9
$DIMLIM
 70
     0
  9
$DIMTIH
 70
     0
  9
$DIMTOH
 70
     0
  9
$DIMSE1
 70
     0
  9
$DIMSE2
 70
     0
  9
$DIMTAD
 70
     1
  9
$DIMZIN
 70
     9
  9
$DIMBLK
  1

  9
$DIMASO
 70
     1
  9
$DIMSHO
 70
     1
  9
$DIMPOST
  1

  9
$DIMAPOST
  1

  9
$DIMALT
 70
     0
  9
$DIMALTD
 70
     4
  9
$DIMALTF
 40
0.0394
  9
$DIMLFAC
 40
1.0
  9
$DIMTOFL
 70
     0
  9
$DIMTVP
 40
0.0
  9
$DIMTIX
 70
     0
  9
$DIMSOXD
 70
     0
  9
$DIMSAH
 70
     1
  9
$DIMBLK1
  1
ARCHTICK
  9
$DIMBLK2
  1
ARCHTICK
  9
$DIMSTYLE
  2
Access
  9
$DIMCLRD
 70
   256
  9
$DIMCLRE
 70
   256
  9
$DIMCLRT
 70
   256
  9
$DIMTFAC
 40
1.0
  9
$DIMGAP
 40
0.9
  9
$DIMJUST
 70
     0
  9
$DIMSD1
 70
     0
  9
$DIMSD2
 70
     0
  9
$DIMTOLJ
 70
     1
  9
$DIMTZIN
 70
     0
  9
$DIMALTZ
 70
     0
  9
$DIMALTTZ
 70
     0
  9
$DIMUPT
 70
     0
  9
$DIMDEC
 70
     0
  9
$DIMTDEC
 70
     0
  9
$DIMALTU
 70
     8
  9
$DIMALTTD
 70
     4
  9
$DIMTXSTY
  7
Standard
  9
$DIMAUNIT
 70
     0
  9
$DIMADEC
 70
     0
  9
$DIMALTRND
 40
0.0
  9
$DIMAZIN
 70
     0
  9
$DIMDSEP
 70
    46
  9
$DIMATFIT
 70
     3
  9
$DIMFRAC
 70
     0
  9
$DIMLDRBLK
  1

  9
$DIMLUNIT
 70
     2
  9
$DIMLWD
 70
    -2
  9
$DIMLWE
 70
    -2
  9
$DIMTMOVE
 70
     2
  9
$DIMFXL
 40
2.0
  9
$DIMFXLON
 70
     0
  9
$DIMJOGANG
 40
1.570796326794896
  9
$DIMTFILL
 70
     0
  9
$DIMTFILLCLR
 70
     0
  9
$DIMARCSYM
 70
     0
  9
$DIMLTYPE
  6

  9
$DIMLTEX1
  6

  9
$DIMLTEX2
  6

  9
$LUNITS
 70
     2
  9
$LUPREC
 70
     4
  9
$SKETCHINC
 40
1.0
  9
$FILLETRAD
 40
0.0
  9
$AUNITS
 70
     0
  9
$AUPREC
 70
     0
  9
$MENU
  1
.
  9
$ELEVATION
 40
0.0
  9
$PELEVATION
 40
0.0
  9
$THICKNESS
 40
0.0
  9
$LIMCHECK
 70
     0
  9
$CHAMFERA
 40
0.0
  9
$CHAMFERB
 40
0.0
  9
$CHAMFERC
 40
0.0
  9
$CHAMFERD
 40
0.0
  9
$SKPOLY
 70
     0
  9
$TDCREATE
 40
2453960.715830440
  9
$TDUCREATE
 40
2453960.299163773
  9
$TDUPDATE
 40
2455343.869214121
  9
$TDUUPDATE
 40
2455343.452547454
  9
$TDINDWG
 40
0.5857225231
  9
$TDUSRTIMER
 40
0.5857225231
  9
$USRTIMER
 70
     1
  9
$ANGBASE
 50
0.0
  9
$ANGDIR
 70
     0
  9
$PDMODE
 70
     0
  9
$PDSIZE
 40
0.0
  9
$PLINEWID
 40
0.0
  9
$SPLFRAME
 70
     0
  9
$SPLINETYPE
 70
     6
  9
$SPLINESEGS
 70
     8
  9
$HANDSEED
  5
216
  9
$SURFTAB1
 70
     6
  9
$SURFTAB2
 70
     6
  9
$SURFTYPE
 70
     6
  9
$SURFU
 70
     6
  9
$SURFV
 70
     6
  9
$UCSBASE
  2

  9
$UCSNAME
  2

  9
$UCSORG
 10
0.0
 20
0.0
 30
0.0
  9
$UCSXDIR
 10
1.0
 20
0.0
 30
0.0
  9
$UCSYDIR
 10
0.0
 20
1.0
 30
0.0
  9
$UCSORTHOREF
  2

  9
$UCSORTHOVIEW
 70
     0
  9
$UCSORGTOP
 10
0.0
 20
0.0
 30
0.0
  9
$UCSORGBOTTOM
 10
0.0
 20
0.0
 30
0.0
  9
$UCSORGLEFT
 10
0.0
 20
0.0
 30
0.0
  9
$UCSORGRIGHT
 10
0.0
 20
0.0
 30
0.0
  9
$UCSORGFRONT
 10
0.0
 20
0.0
 30
0.0
  9
$UCSORGBACK
 10
0.0
 20
0.0
 30
0.0
  9
$PUCSBASE
  2

  9
$PUCSNAME
  2

  9
$PUCSORG
 10
0.0
 20
0.0
 30
0.0
  9
$PUCSXDIR
 10
1.0
 20
0.0
 30
0.0
  9
$PUCSYDIR
 10
0.0
 20
1.0
 30
0.0
  9
$PUCSORTHOREF
  2

  9
$PUCSORTHOVIEW
 70
     0
  9
$PUCSORGTOP
 10
0.0
 20
0.0
 30
0.0
  9
$PUCSORGBOTTOM
 10
0.0
 20
0.0
 30
0.0
  9
$PUCSORGLEFT
 10
0.0
 20
0.0
 30
0.0
  9
$PUCSORGRIGHT
 10
0.0
 20
0.0
 30
0.0
  9
$PUCSORGFRONT
 10
0.0
 20
0.0
 30
0.0
  9
$PUCSORGBACK
 10
0.0
 20
0.0
 30
0.0
  9
$USERI1
 70
     0
  9
$USERI2
 70
     0
  9
$USERI3
 70
     0
  9
$USERI4
 70
     0
  9
$USERI5
 70
     0
  9
$USERR1
 40
0.0
  9
$USERR2
 40
0.0
  9
$USERR3
 40
0.0
  9
$USERR4
 40
0.0
  9
$USERR5
 40
0.0
  9
$WORLDVIEW
 70
     1
  9
$SHADEDGE
 70
     3
  9
$SHADEDIF
 70
    70
  9
$TILEMODE
 70
     1
  9
$MAXACTVP
 70
    64
  9
$PINSBASE
 10
0.0
 20
0.0
 30
0.0
  9
$PLIMCHECK
 70
     0
  9
$PEXTMIN
 10
25.69999999999999
 20
19.5
 30
0.0
  9
$PEXTMAX
 10
231.3
 20
175.5
 30
0.0
  9
$PLIMMIN
 10
-20.0
 20
-7.5
  9
$PLIMMAX
 10
277.0
 20
202.5
  9
$UNITMODE
 70
     0
  9
$VISRETAIN
 70
     1
  9
$PLINEGEN
 70
     0
  9
$PSLTSCALE
 70
     1
  9
$TREEDEPTH
 70
  3020
  9
$CMLSTYLE
  2
Standard
  9
$CMLJUST
 70
     0
  9
$CMLSCALE
 40
20.0
  9
$PROXYGRAPHICS
 70
     1
  9
$MEASUREMENT
 70
     1
  9
$CELWEIGHT
370
    -1
  9
$ENDCAPS
280
     0
  9
$JOINSTYLE
280
     0
  9
$LWDISPLAY
290
     0
  9
$INSUNITS
 70
     4
  9
$HYPERLINKBASE
  1

  9
$STYLESHEET
  1
LCG Normal.ctb
  9
$XEDIT
290
     1
  9
$CEPSNTYPE
380
     0
  9
$PSTYLEMODE
290
     1
  9
$FINGERPRINTGUID
  2
{F6D351F8-1BF0-4090-BFA1-3003D179BB8E}
  9
$VERSIONGUID
  2
{7D7215AF-81BB-4C37-9316-3A7E88620050}
  9
$EXTNAMES
290
     1
  9
$PSVPSCALE
 40
0.0
  9
$OLESTARTUP
290
     0
  9
$SORTENTS
280
   127
  9
$INDEXCTL
280
     0
  9
$HIDETEXT
280
     1
  9
$XCLIPFRAME
290
     0
  9
$HALOGAP
280
     0
  9
$OBSCOLOR
 70
   257
  9
$OBSLTYPE
280
     0
  9
$INTERSECTIONDISPLAY
280
     0
  9
$INTERSECTIONCOLOR
 70
   257
  9
$DIMASSOC
280
     2
  9
$PROJECTNAME
  1

  9
$CAMERADISPLAY
290
     0
  9
$LENSLENGTH
 40
50.0
  9
$CAMERAHEIGHT
 40
0.0
  9
$STEPSPERSEC
 40
2.0
  9
$STEPSIZE
 40
6.0
  9
$3DDWFPREC
 40
2.0
  9
$PSOLWIDTH
 40
0.25
  9
$PSOLHEIGHT
 40
4.0
  9
$LOFTANG1
 40
1.570796326794896
  9
$LOFTANG2
 40
1.570796326794896
  9
$LOFTMAG1
 40
0.0
  9
$LOFTMAG2
 40
0.0
  9
$LOFTPARAM
 70
     7
  9
$LOFTNORMALS
280
     1
  9
$LATITUDE
 40
37.795
  9
$LONGITUDE
 40
-122.394
  9
$NORTHDIRECTION
 40
0.0
  9
$TIMEZONE
 70
 -8000
  9
$LIGHTGLYPHDISPLAY
280
     1
  9
$TILEMODELIGHTSYNCH
280
     1
  9
$CMATERIAL
347
39
  9
$SOLIDHIST
280
     1
  9
$SHOWHIST
280
     1
  9
$DWFFRAME
280
     2
  9
$DGNFRAME
280
     0
  9
$REALWORLDSCALE
290
     1
  9
$INTERFERECOLOR
 62
     1
  9
$INTERFEREOBJVS
345
41
  9
$INTERFEREVPVS
346
42
  9
$CSHADOW
280
     0
  9
$SHADOWPLANELOCATION
 40
0.0
  0
ENDSEC
  0
SECTION
  2
CLASSES
  0
CLASS
  1
ACDBDICTIONARYWDFLT
  2
AcDbDictionaryWithDefault
  3
ObjectDBX Classes
 90
        0
 91
        1
280
     0
281
     0
  0
CLASS
  1
DICTIONARYVAR
  2
AcDbDictionaryVar
  3
ObjectDBX Classes
 90
        0
 91
        1
280
     0
281
     0
  0
CLASS
  1
TABLESTYLE
  2
AcDbTableStyle
  3
ObjectDBX Classes
 90
     4095
 91
        1
280
     0
281
     0
  0
CLASS
  1
PLOTSETTINGS
  2
AcDbPlotSettings
  3
ObjectDBX Classes
 90
        0
 91
        0
280
     0
281
     0
  0
CLASS
  1
SORTENTSTABLE
  2
AcDbSortentsTable
  3
ObjectDBX Classes
 90
        0
 91
        1
280
     0
281
     0
  0
CLASS
  1
DIMASSOC
  2
AcDbDimAssoc
  3
"AcDbDimAssoc|Product Desc:     AcDim ARX App For Dimension|Company:          Autodesk, Inc.|WEB Address:      www.autodesk.com"
 90
        0
 91
        0
280
     0
281
     0
  0
CLASS
  1
SPATIAL_FILTER
  2
AcDbSpatialFilter
  3
ObjectDBX Classes
 90
        0
 91
        0
280
     0
281
     0
  0
CLASS
  1
MATERIAL
  2
AcDbMaterial
  3
ObjectDBX Classes
 90
     1024
 91
        3
280
     0
281
     0
  0
CLASS
  1
VISUALSTYLE
  2
AcDbVisualStyle
  3
ObjectDBX Classes
 90
     4095
 91
       16
280
     0
281
     0
  0
CLASS
  1
SOLID_BACKGROUND
  2
AcDbSolidBackground
  3
SCENEOE
 90
     4095
 91
        0
280
     0
281
     0
  0
CLASS
  1
NPOCOLLECTION
  2
AcDbImpNonPersistentObjectsCollection
  3
ObjectDBX Classes
 90
     1153
 91
        0
280
     0
281
     0
  0
ENDSEC
  0
SECTION
  2
TABLES
  0
TABLE
  2
VPORT
  5
25
102
{ACAD_XDICTIONARY
360
29
102
}
330
0
100
AcDbSymbolTable
 70
     1
  0
VPORT
  5
26
330
25
100
AcDbSymbolTableRecord
100
AcDbViewportTableRecord
  2
*Active
 70
     0
 10
0.0
 20
0.0
 11
1.0
 21
1.0
 12
-7470.013938529399
 22
-27585.0915556894
 13
0.0
 23
0.0
 14
10.0
 24
10.0
 15
10.0
 25
10.0
 16
0.0
 26
0.0
 36
1.0
 17
0.0
 27
0.0
 37
0.0
 40
1926.374736570586
 41
2.494824016563146
 42
50.0
 43
0.0
 44
0.0
 50
0.0
 51
0.0
 71
     0
 72
  1000
 73
     1
 74
     3
 75
     0
 76
     0
 77
     0
 78
     0
281
     0
 65
     1
110
0.0
120
0.0
130
0.0
111
1.0
121
0.0
131
0.0
112
0.0
122
1.0
132
0.0
 79
     0
146
0.0
348
27
 60
     3
 61
     5
292
     1
282
     1
141
0.0
142
0.0
 63
   250
421
  3355443
  0
ENDTAB
  0
TABLE
  2
LTYPE
  5
20
330
0
100
AcDbSymbolTable
 70
     4
  0
LTYPE
  5
21
330
20
100
AcDbSymbolTableRecord
100
AcDbLinetypeTableRecord
  2
ByBlock
 70
     0
  3

 72
    65
 73
     0
 40
0.0
  0
LTYPE
  5
22
330
20
100
AcDbSymbolTableRecord
100
AcDbLinetypeTableRecord
  2
ByLayer
 70
     0
  3

 72
    65
 73
     0
 40
0.0
  0
LTYPE
  5
C
330
20
100
AcDbSymbolTableRecord
100
AcDbLinetypeTableRecord
  2
Continuous
 70
     0
  3
Solid line
 72
    65
 73
     0
 40
0.0
  0
LTYPE
  5
57
330
20
100
AcDbSymbolTableRecord
100
AcDbLinetypeTableRecord
  2
CENTER
 70
     0
  3
Center ____ _ ____ _ ____ _ ____ _ ____ _ ____
 72
    65
 73
     4
 40
2.0
 49
1.25
 74
     0
 49
-0.25
 74
     0
 49
0.25
 74
     0
 49
-0.25
 74
     0
  0
LTYPE
  5
45
330
20
100
AcDbSymbolTableRecord
100
AcDbLinetypeTableRecord
  2
DASHED
 70
     0
  3
Dashed __ __ __ __ __ __ __ __ __ __ __ __ __ _
 72
    65
 73
     2
 40
0.75
 49
0.5
 74
     0
 49
-0.25
 74
     0
  0
LTYPE
  5
14A
330
20
100
AcDbSymbolTableRecord
100
AcDbLinetypeTableRecord
  2
HIDDEN
 70
     0
  3
Hidden __ __ __ __ __ __ __ __ __ __ __ __ __ _
 72
    65
 73
     2
 40
0.375
 49
0.25
 74
     0
 49
-0.125
 74
     0
  0
ENDTAB
  0
TABLE
  2
LAYER
  5
17
102
{ACAD_XDICTIONARY
360
18
102
}
330
0
100
AcDbSymbolTable
 70
     6
  0
LAYER
  5
6
330
17
100
AcDbSymbolTableRecord
100
AcDbLayerTableRecord
  2
0
 70
     0
 62
     7
  6
Continuous
370
    -3
390
7
347
A
  0
LAYER
  5
AF
330
17
100
AcDbSymbolTableRecord
100
AcDbLayerTableRecord
  2
Access .1
 70
     0
 62
     1
  6
Continuous
370
    -3
390
7
347
A
1001
AcAecLayerStandard
1000

1000

  0
LAYER
  5
4D
330
17
100
AcDbSymbolTableRecord
100
AcDbLayerTableRecord
  2
Access .2
 70
     0
 62
     2
  6
Continuous
370
    -3
390
7
347
A
1001
AcAecLayerStandard
1000

1000

  0
LAYER
  5
3D
330
17
100
AcDbSymbolTableRecord
100
AcDbLayerTableRecord
  2
Access .3
 70
     0
 62
     3
  6
Continuous
370
    -3
390
7
347
A
1001
AcAecLayerStandard
1000

1000

  0
LAYER
  5
44
330
17
100
AcDbSymbolTableRecord
100
AcDbLayerTableRecord
  2
Access Circulation
 70
     0
 62
     6
  6
DASHED
370
    -3
390
7
347
A
1001
AcAecLayerStandard
1000

1000

  0
LAYER
  5
56
330
17
100
AcDbSymbolTableRecord
100
AcDbLayerTableRecord
  2
Access Grid
 70
     0
 62
     8
  6
CENTER
370
    -3
390
7
347
A
1001
AcAecLayerStandard
1000

1000

  0
ENDTAB
  0
TABLE
  2
STYLE
  5
1D
330
0
100
AcDbSymbolTable
 70
     1
  0
STYLE
  5
1E
330
1D
100
AcDbSymbolTableRecord
100
AcDbTextStyleTableRecord
  2
Standard
 70
     0
 40
0.0
 41
1.0
 50
0.0
 71
     0
 42
536.1425458167722
  3
ARIALN.TTF
  4

1001
ACAD
1000
Arial Narrow
1071
       34
  0
ENDTAB
  0
TABLE
  2
VIEW
  5
23
330
0
100
AcDbSymbolTable
 70
     0
  0
ENDTAB
  0
TABLE
  2
UCS
  5
24
330
0
100
AcDbSymbolTable
 70
     0
  0
ENDTAB
  0
TABLE
  2
APPID
  5
2A
330
0
100
AcDbSymbolTable
 70
     5
  0
APPID
  5
1C
330
2A
100
AcDbSymbolTableRecord
100
AcDbRegAppTableRecord
  2
ACAD
 70
     0
  0
APPID
  5
10
330
2A
100
AcDbSymbolTableRecord
100
AcDbRegAppTableRecord
  2
ACAD_PSEXT
 70
     0
  0
APPID
  5
3E
330
2A
100
AcDbSymbolTableRecord
100
AcDbRegAppTableRecord
  2
AcAecLayerStandard
 70
     0
  0
APPID
  5
34
330
2A
100
AcDbSymbolTableRecord
100
AcDbRegAppTableRecord
  2
ACAD_DSTYLE_DIMJOGGED_JOGANGLE_SYMBOL
 70
     0
  0
APPID
  5
1A8
330
2A
100
AcDbSymbolTableRecord
100
AcDbRegAppTableRecord
  2
ACAD_DSTYLE_DIMEXT_LENGTH
 70
     0
  0
ENDTAB
  0
TABLE
  2
DIMSTYLE
  5
2B
330
0
100
AcDbSymbolTable
 70
     1
100
AcDbDimStyleTable
 71
     1
340
2C
  0
DIMSTYLE
105
2C
330
2B
100
AcDbSymbolTableRecord
100
AcDbDimStyleTableRecord
  2
Access
 70
     0
 40
10.0
 41
2.5
 42
1.0
 43
1.0
 44
2.0
 46
2.0
 49
2.0
 50
90.0
 73
     0
 74
     0
 77
     1
 78
     9
140
1.8
141
2.5
143
0.0394
147
0.9
171
     4
173
     1
176
   256
177
   256
178
   256
271
     0
272
     0
273
     8
274
     4
279
     2
340
1E
343
2D
344
2D
1001
ACAD_DSTYLE_DIMJOGGED_JOGANGLE_SYMBOL
1070
   384
1040
1.570796326794896
  0
ENDTAB
  0
TABLE
  2
BLOCK_RECORD
  5
1
330
0
100
AcDbSymbolTable
 70
     1
  0
BLOCK_RECORD
  5
2
102
{ACAD_XDICTIONARY
360
3
102
}
330
1
100
AcDbSymbolTableRecord
100
AcDbBlockTableRecord
  2
*Model_Space
340
E
 70
     0
280
     1
281
     0
  0
BLOCK_RECORD
  5
11
330
1
100
AcDbSymbolTableRecord
100
AcDbBlockTableRecord
  2
*Paper_Space
340
14
 70
     0
280
     1
281
     0
  0
BLOCK_RECORD
  5
2D
330
1
100
AcDbSymbolTableRecord
100
AcDbBlockTableRecord
  2
_ARCHTICK
340
0
 70
     0
280
     1
281
     0
  0
ENDTAB
  0
ENDSEC
  0
SECTION
  2
BLOCKS
  0
BLOCK
  5
5
330
2
100
AcDbEntity
  8
0
100
AcDbBlockBegin
  2
*Model_Space
 70
     0
 10
0.0
 20
0.0
 30
0.0
  3
*Model_Space
  1

  0
ENDBLK
  5
D
330
2
100
AcDbEntity
  8
0
100
AcDbBlockEnd
  0
BLOCK
  5
12
330
11
100
AcDbEntity
 67
     1
  8
0
100
AcDbBlockBegin
  2
*Paper_Space
 70
     0
 10
0.0
 20
0.0
 30
0.0
  3
*Paper_Space
  1

  0
ENDBLK
  5
13
330
11
100
AcDbEntity
 67
     1
  8
0
100
AcDbBlockEnd
  0
BLOCK
  5
2E
330
2D
100
AcDbEntity
  8
0
100
AcDbBlockBegin
  2
_ARCHTICK
 70
     0
 10
0.0
 20
0.0
 30
0.0
  3
_ARCHTICK
  1

  0
POLYLINE
  5
2F
330
2D
100
AcDbEntity
  8
0
  6
ByBlock
 62
     0
100
AcDb2dPolyline
 66
     1
 10
0.0
 20
0.0
 30
0.0
 40
0.15
 41
0.15
  0
VERTEX
  5
30
330
2F
100
AcDbEntity
  8
0
  6
ByBlock
 62
     0
100
AcDbVertex
100
AcDb2dVertex
 10
-0.5
 20
-0.5
 30
0.0
  0
VERTEX
  5
31
330
2F
100
AcDbEntity
  8
0
  6
ByBlock
 62
     0
100
AcDbVertex
100
AcDb2dVertex
 10
0.5
 20
0.5
 30
0.0
  0
SEQEND
  5
32
330
2F
100
AcDbEntity
  8
0
  6
ByBlock
 62
     0
  0
ENDBLK
  5
33
330
2D
100
AcDbEntity
  8
0
100
AcDbBlockEnd
  0
ENDSEC
  0
SECTION
  2
ENTITIES
  0
LINE
  5
43
330
2
100
AcDbEntity
  8
Access Circulation
100
AcDbLine
 10
-6441.848698920317
 20
-26635.19437598874
 30
0.0
 11
-8441.848698920315
 21
-26635.19437598874
 31
0.0
  0
ARC
  5
46
330
2
100
AcDbEntity
  8
Access Circulation
100
AcDbCircle
 10
-8441.848698920315
 20
-26935.19437598875
 30
0.0
 40
300.0
100
AcDbArc
 50
90.0
 51
180.0
  0
LINE
  5
47
330
2
100
AcDbEntity
  8
Access Circulation
100
AcDbLine
 10
-6741.848698920314
 20
-28535.19437598874
 30
0.0
 11
-8441.848698920315
 21
-28535.19437598874
 31
0.0
  0
ARC
  5
48
330
2
100
AcDbEntity
  8
Access Circulation
100
AcDbCircle
 10
-6741.848698920314
 20
-28235.19437598875
 30
0.0
 40
300.0
100
AcDbArc
 50
270.0
 51
0.0
  0
LINE
  5
49
330
2
100
AcDbEntity
  8
Access Circulation
100
AcDbLine
 10
-6441.848698920317
 20
-26635.19437598874
 30
0.0
 11
-6441.848698920314
 21
-28235.19437598875
 31
0.0
  0
LINE
  5
4A
330
2
100
AcDbEntity
  8
Access Circulation
100
AcDbLine
 10
-8741.848698920316
 20
-26935.19437598875
 30
0.0
 11
-8741.848698920316
 21
-28235.19437598875
 31
0.0
  0
ARC
  5
4B
330
2
100
AcDbEntity
  8
Access Circulation
100
AcDbCircle
 10
-8441.848698920315
 20
-28235.19437598875
 30
0.0
 40
300.0
100
AcDbArc
 50
180.0
 51
270.0
  0
LINE
  5
4C
330
2
100
AcDbEntity
  8
Access .2
100
AcDbLine
 10
-7454.713882952336
 20
-26643.19437598874
 30
0.0
 11
-7529.713882952332
 21
-26643.19437598874
 31
0.0
  0
LINE
  5
4E
330
2
100
AcDbEntity
  8
Access .2
100
AcDbLine
 10
-6491.848698920316
 20
-26685.19437598874
 30
0.0
 11
-7458.213882952335
 21
-26685.19437598874
 31
0.0
  0
LINE
  5
4F
330
2
100
AcDbEntity
  8
Access .2
100
AcDbLine
 10
-6523.848698920315
 20
-26717.19437598874
 30
0.0
 11
-7458.213882952335
 21
-26717.19437598874
 31
0.0
  0
ARC
  5
50
330
2
100
AcDbEntity
  8
Access .2
100
AcDbCircle
 10
-7458.213882952335
 20
-26667.19437598874
 30
0.0
 40
50.0
100
AcDbArc
 50
180.0
 51
270.0
  0
ARC
  5
51
330
2
100
AcDbEntity
  8
Access .2
100
AcDbCircle
 10
-7458.213882952335
 20
-26667.19437598874
 30
0.0
 40
18.0
100
AcDbArc
 50
180.0
 51
270.0
  0
LINE
  5
52
330
2
100
AcDbEntity
  8
Access .2
100
AcDbLine
 10
-6449.848698920317
 20
-27555.19437598874
 30
0.0
 11
-6449.848698920317
 21
-27615.19437598874
 31
0.0
  0
LINE
  5
53
330
2
100
AcDbEntity
  8
Access .2
100
AcDbLine
 10
-6491.848698920316
 20
-26685.19437598874
 30
0.0
 11
-6491.848698920316
 21
-27551.19437598875
 31
0.0
  0
LINE
  5
54
330
2
100
AcDbEntity
  8
Access .2
100
AcDbLine
 10
-6523.848698920315
 20
-26717.19437598874
 30
0.0
 11
-6523.848698920315
 21
-27551.19437598875
 31
0.0
  0
LINE
  5
55
330
2
100
AcDbEntity
  8
Access Grid
100
AcDbLine
 10
-6198.676832531607
 20
-27085.19437598874
 30
0.0
 11
-7397.634938077607
 21
-27085.19437598874
 31
0.0
  0
LINE
  5
58
330
2
100
AcDbEntity
  8
Access .2
100
AcDbLine
 10
-6441.848698920316
 20
-27615.19437598874
 30
0.0
 11
-6449.848698920317
 21
-27615.19437598874
 31
0.0
  0
LINE
  5
59
330
2
100
AcDbEntity
  8
Access .2
100
AcDbLine
 10
-6449.848698920317
 20
-27601.19437598874
 30
0.0
 11
-6473.848698920313
 21
-27601.19437598874
 31
0.0
  0
ARC
  5
5A
330
2
100
AcDbEntity
  8
Access .2
100
AcDbCircle
 10
-6473.848698920315
 20
-27551.19437598875
 30
0.0
 40
50.0
100
AcDbArc
 50
180.0
 51
270.0
  0
ARC
  5
5B
330
2
100
AcDbEntity
  8
Access .2
100
AcDbCircle
 10
-6473.848698920315
 20
-27551.19437598875
 30
0.0
 40
18.0
100
AcDbArc
 50
180.0
 51
270.0
  0
LINE
  5
5C
330
2
100
AcDbEntity
  8
Access .2
100
AcDbLine
 10
-6449.848698920317
 20
-27569.19437598874
 30
0.0
 11
-6473.848698920315
 21
-27569.19437598874
 31
0.0
  0
LINE
  5
5D
330
2
100
AcDbEntity
  8
Access .2
100
AcDbLine
 10
-6441.848698920316
 20
-27555.19437598874
 30
0.0
 11
-6449.848698920317
 21
-27555.19437598874
 31
0.0
  0
LINE
  5
5E
330
2
100
AcDbEntity
  8
Access .2
100
AcDbLine
 10
-6901.348698920317
 20
-26685.19437598874
 30
0.0
 11
-6901.348698920317
 21
-26643.19437598874
 31
0.0
  0
LINE
  5
5F
330
2
100
AcDbEntity
  8
Access .2
100
AcDbLine
 10
-6882.348698920316
 20
-26685.19437598874
 30
0.0
 11
-6882.348698920319
 21
-26643.19437598874
 31
0.0
  0
LINE
  5
60
330
2
100
AcDbEntity
  8
Access .2
100
AcDbLine
 10
-7529.713882952333
 20
-26635.19437598874
 30
0.0
 11
-7529.713882952332
 21
-26643.19437598874
 31
0.0
  0
LINE
  5
61
330
2
100
AcDbEntity
  8
Access .2
100
AcDbLine
 10
-7508.213882952336
 20
-26643.19437598874
 30
0.0
 11
-7508.213882952334
 21
-26667.19437598874
 31
0.0
  0
LINE
  5
62
330
2
100
AcDbEntity
  8
Access .2
100
AcDbLine
 10
-7454.713882952332
 20
-26635.19437598874
 30
0.0
 11
-7454.713882952333
 21
-26643.19437598874
 31
0.0
  0
LINE
  5
63
330
2
100
AcDbEntity
  8
Access .2
100
AcDbLine
 10
-7476.213882952333
 20
-26643.19437598874
 30
0.0
 11
-7476.213882952331
 21
-26667.19437598874
 31
0.0
  0
LINE
  5
64
330
2
100
AcDbEntity
  8
Access .2
100
AcDbLine
 10
-6854.348698920318
 20
-26643.19437598874
 30
0.0
 11
-6929.348698920318
 21
-26643.19437598874
 31
0.0
  0
LINE
  5
65
330
2
100
AcDbEntity
  8
Access .2
100
AcDbLine
 10
-6929.348698920319
 20
-26635.19437598874
 30
0.0
 11
-6929.348698920318
 21
-26643.19437598874
 31
0.0
  0
LINE
  5
66
330
2
100
AcDbEntity
  8
Access .2
100
AcDbLine
 10
-6854.348698920317
 20
-26635.19437598874
 30
0.0
 11
-6854.348698920318
 21
-26643.19437598874
 31
0.0
  0
LINE
  5
67
330
2
100
AcDbEntity
  8
Access .2
100
AcDbLine
 10
-7529.713882952333
 20
-26635.19437598874
 30
0.0
 11
-7454.713882952332
 21
-26635.19437598874
 31
0.0
  0
LINE
  5
68
330
2
100
AcDbEntity
  8
Access .2
100
AcDbLine
 10
-6929.348698920319
 20
-26635.19437598874
 30
0.0
 11
-6854.348698920317
 21
-26635.19437598874
 31
0.0
  0
LINE
  5
69
330
2
100
AcDbEntity
  8
Access .2
100
AcDbLine
 10
-6441.848698920316
 20
-27555.19437598874
 30
0.0
 11
-6441.848698920316
 21
-27615.19437598874
 31
0.0
  0
LWPOLYLINE
  5
6A
330
2
100
AcDbEntity
  8
Access .2
  6
ByBlock
100
AcDbPolyline
 90
       13
 70
     0
 43
0.0
 10
-6738.493260687899
 20
-26915.22294044187
 10
-6713.284825629305
 20
-26916.6690463989
 10
-6700.692693060945
 20
-26917.36503028562
 10
-6677.619756049226
 20
-26918.55570411374
 10
-6668.145146674226
 20
-26919.0040073364
 10
-6650.869878119539
 20
-26919.75126075436
 10
-6638.546971625398
 20
-26920.22519874265
 10
-6626.81030780704
 20
-26920.63022803952
 10
-6615.071202582429
 20
-26920.99064063718
 10
-6603.207158392976
 20
-26921.3106479614
 10
-6591.322636908602
 20
-26921.58884620358
 10
-6568.727055853914
 20
-26922.01029395749
 10
-6548.582646674226
 20
-26922.28122901608
  0
LWPOLYLINE
  5
6B
330
2
100
AcDbEntity
  8
Access .2
  6
ByBlock
100
AcDbPolyline
 90
       11
 70
     0
 43
0.0
 10
-6556.466100043367
 20
-27248.20939063718
 10
-6565.690800971101
 20
-27248.34617042233
 10
-6588.708867377352
 20
-27248.7740879028
 10
-6611.719731635163
 20
-27249.34293555905
 10
-6630.082219428132
 20
-27249.91019630124
 10
-6648.359319037507
 20
-27250.58091163327
 10
-6661.972600287509
 20
-27251.14945411374
 10
-6678.522069281648
 20
-27251.91581153561
 10
-6695.027806586336
 20
-27252.75290870358
 10
-6711.536320990633
 20
-27253.64707374265
 10
-6738.498174017976
 20
-27255.17698096921
  0
LWPOLYLINE
  5
6C
330
2
100
AcDbEntity
  8
Access .2
  6
ByBlock
100
AcDbPolyline
 90
       11
 70
     0
 43
0.0
 10
-7034.100041693758
 20
-27190.97739600827
 10
-7040.498906439852
 20
-27190.1471347778
 10
-7046.883794135164
 20
-27189.18351173093
 10
-7053.200383490633
 20
-27188.09159278562
 10
-7059.422734564852
 20
-27186.86875343015
 10
-7063.515324896883
 20
-27185.97727393796
 10
-7067.56531268985
 20
-27185.02140235593
 10
-7071.576299017976
 20
-27183.99827003171
 10
-7075.55231220157
 20
-27182.90531348874
 10
-7079.497014350008
 20
-27181.74057960202
 10
-7083.412602728914
 20
-27180.50339698483
  0
LWPOLYLINE
  5
6D
330
2
100
AcDbEntity
  8
Access .2
  6
ByBlock
100
AcDbPolyline
 90
       11
 70
     0
 43
0.0
 10
-7034.100041693758
 20
-26979.41135596921
 10
-7040.498906439852
 20
-26980.24161719968
 10
-7046.883794135164
 20
-26981.20524024655
 10
-7053.200383490633
 20
-26982.29715919187
 10
-7059.422734564852
 20
-26983.51999854733
 10
-7063.515324896883
 20
-26984.41147803952
 10
-7067.56531268985
 20
-26985.36734962155
 10
-7071.576299017976
 20
-26986.39048194577
 10
-7075.55231220157
 20
-26987.48343848874
 10
-7079.497014350008
 20
-26988.64817237546
 10
-7083.412602728914
 20
-26989.88535499265
  0
LWPOLYLINE
  5
6E
330
2
100
AcDbEntity
  8
Access .2
  6
ByBlock
100
AcDbPolyline
 90
       11
 70
     0
 43
0.0
 10
-7105.287358588289
 20
-26922.86545753171
 10
-7099.068181342196
 20
-26920.91428565671
 10
-7092.808598822664
 20
-26919.10410499265
 10
-7086.514958685945
 20
-26917.43589210202
 10
-7080.196294135165
 20
-26915.90775489499
 10
-7073.861821478914
 20
-26914.51511573483
 10
-7067.518681830477
 20
-26913.2520542114
 10
-7061.259465521882
 20
-26912.12656593015
 10
-7054.995305365633
 20
-26911.11374854733
 10
-7048.722417182038
 20
-26910.2081088989
 10
-7042.431035346101
 20
-26909.4053745239
  0
LWPOLYLINE
  5
6F
330
2
100
AcDbEntity
  8
Access .2
  6
ByBlock
100
AcDbPolyline
 90
       11
 70
     0
 43
0.0
 10
-7105.287358588289
 20
-27247.52329444577
 10
-7099.068181342196
 20
-27249.47446632077
 10
-7092.808598822664
 20
-27251.28464698483
 10
-7086.514958685945
 20
-27252.95285987546
 10
-7080.196294135165
 20
-27254.48099708249
 10
-7073.861821478914
 20
-27255.87363624265
 10
-7067.518681830477
 20
-27257.13669776609
 10
-7061.259465521882
 20
-27258.26218604733
 10
-7054.995305365633
 20
-27259.27500343015
 10
-7048.722417182038
 20
-27260.18064307858
 10
-7042.431035346101
 20
-27260.98337745359
  0
LWPOLYLINE
  5
70
330
2
100
AcDbEntity
  8
Access .2
  6
ByBlock
100
AcDbPolyline
 90
        6
 70
     0
 43
0.0
 10
-7236.232060736726
 20
-27045.6758823364
 10
-7234.94391376407
 20
-27041.46366309811
 10
-7233.554692572664
 20
-27037.28238868405
 10
-7232.056645697664
 20
-27033.12638282468
 10
-7230.445256537507
 20
-27028.99582862546
 10
-7228.692632025789
 20
-27024.83732032468
  0
LWPOLYLINE
  5
71
330
2
100
AcDbEntity
  8
Access .2
  6
ByBlock
100
AcDbPolyline
 90
        6
 70
     0
 43
0.0
 10
-7236.232060736726
 20
-27124.71286964108
 10
-7234.94391376407
 20
-27128.92508887937
 10
-7233.554692572664
 20
-27133.10636329343
 10
-7232.056645697664
 20
-27137.26236915281
 10
-7230.445256537507
 20
-27141.39292335202
 10
-7228.692632025789
 20
-27145.5514316528
  0
LWPOLYLINE
  5
72
330
2
100
AcDbEntity
  8
Access .2
  6
ByBlock
100
AcDbPolyline
 90
       12
 70
     0
 43
0.0
 10
-7242.454045600007
 20
-27085.19651221921
 10
-7242.434331244538
 20
-27087.31431007077
 10
-7242.374821967195
 20
-27089.42649268796
 10
-7242.140813178133
 20
-27093.62967872312
 10
-7241.761418646882
 20
-27097.7985019653
 10
-7241.247197455476
 20
-27101.92765235593
 10
-7240.609196967195
 20
-27106.01328468015
 10
-7240.17926532657
 20
-27108.40329932858
 10
-7239.712407416414
 20
-27110.77707862546
 10
-7238.67633563907
 20
-27115.47702979733
 10
-7237.513982123445
 20
-27120.11911964109
 10
-7236.232060736726
 20
-27124.71286964108
  0
LWPOLYLINE
  5
73
330
2
100
AcDbEntity
  8
Access .2
  6
ByBlock
100
AcDbPolyline
 90
       12
 70
     0
 43
0.0
 10
-7242.454045600007
 20
-27085.19223975827
 10
-7242.434331244538
 20
-27083.07444190671
 10
-7242.374821967195
 20
-27080.96225928952
 10
-7242.140813178133
 20
-27076.75907325437
 10
-7241.761418646882
 20
-27072.59025001218
 10
-7241.247197455476
 20
-27068.46109962155
 10
-7240.609196967195
 20
-27064.37546729734
 10
-7240.17926532657
 20
-27061.9854526489
 10
-7239.712407416414
 20
-27059.61167335202
 10
-7238.67633563907
 20
-27054.91172218015
 10
-7237.513982123445
 20
-27050.2696323364
 10
-7236.232060736726
 20
-27045.6758823364
  0
LWPOLYLINE
  5
74
330
2
100
AcDbEntity
  8
Access .2
  6
ByBlock
100
AcDbPolyline
 90
       10
 70
     0
 43
0.0
 10
-7171.954045600007
 20
-27085.19840430905
 10
-7171.932805365632
 20
-27086.53238868405
 10
-7171.869756049225
 20
-27087.86441993405
 10
-7171.633794135164
 20
-27090.52146339109
 10
-7171.273381537507
 20
-27093.16709327389
 10
-7170.942998236727
 20
-27095.09757423093
 10
-7170.56451923282
 20
-27097.01944923093
 10
-7170.122990912507
 20
-27099.02024268796
 10
-7169.639653510164
 20
-27101.00992774655
 10
-7168.58502704532
 20
-27104.86808204343
  0
LWPOLYLINE
  5
75
330
2
100
AcDbEntity
  8
Access .2
  6
ByBlock
100
AcDbPolyline
 90
        9
 70
     0
 43
0.0
 10
-7138.699040717195
 20
-27150.92649268796
 10
-7141.651860541414
 20
-27148.27726173093
 10
-7144.483769721102
 20
-27145.54624366452
 10
-7147.197881049226
 20
-27142.72910499265
 10
-7149.78766376407
 20
-27139.83225440671
 10
-7152.241826361727
 20
-27136.8682651489
 10
-7154.548344916413
 20
-27133.8502597778
 10
-7156.699284857821
 20
-27130.78696632077
 10
-7158.695012396883
 20
-27127.67759132077
  0
LWPOLYLINE
  5
76
330
2
100
AcDbEntity
  8
Access .2
  6
ByBlock
100
AcDbPolyline
 90
       21
 70
     0
 43
0.0
 10
-7184.848027533601
 20
-27204.22239112546
 10
-7182.010991400789
 20
-27206.62961768796
 10
-7179.129216498445
 20
-27208.97641944577
 10
-7176.205510443757
 20
-27211.26267432858
 10
-7173.98688251407
 20
-27212.93772315671
 10
-7171.747197455477
 20
-27214.57895850827
 10
-7167.208623236726
 20
-27217.76059913327
 10
-7162.596745795321
 20
-27220.80954932859
 10
-7157.917790717196
 20
-27223.72849464108
 10
-7153.177129096102
 20
-27226.52048682859
 10
-7148.982243842195
 20
-27228.8619785278
 10
-7144.746770209383
 20
-27231.11130714109
 10
-7140.473271674226
 20
-27233.27085303952
 10
-7136.164250678132
 20
-27235.34299659421
 10
-7133.27301532657
 20
-27236.67698096921
 10
-7130.367802924226
 20
-27237.97361182858
 10
-7124.518010443757
 20
-27240.45743751218
 10
-7119.753850287508
 20
-27242.36051368405
 10
-7114.959416693757
 20
-27244.17203712155
 10
-7110.136662787508
 20
-27245.89292335202
 10
-7105.287358588289
 20
-27247.52329444577
  0
LWPOLYLINE
  5
77
330
2
100
AcDbEntity
  8
Access .2
  6
ByBlock
100
AcDbPolyline
 90
       13
 70
     0
 43
0.0
 10
-7184.848027533601
 20
-27204.22239112546
 10
-7188.073613471101
 20
-27201.36069678952
 10
-7191.240056342195
 20
-27198.41428565671
 10
-7194.341374701569
 20
-27195.38675880124
 10
-7197.373174017977
 20
-27192.27970313718
 10
-7200.332707709383
 20
-27189.09317969968
 10
-7203.217900580476
 20
-27185.82633399655
 10
-7206.026982611726
 20
-27182.47776221921
 10
-7208.758061713289
 20
-27179.04587745358
 10
-7211.408574408601
 20
-27175.52958106686
 10
-7213.974492377352
 20
-27171.92875098874
 10
-7216.450322455476
 20
-27168.24460792234
 10
-7218.828069037508
 20
-27164.48008155515
  0
LWPOLYLINE
  5
78
330
2
100
AcDbEntity
  8
Access .2
  6
ByBlock
100
AcDbPolyline
 90
        6
 70
     0
 43
0.0
 10
-7228.691716498445
 20
-27145.55106544187
 10
-7226.92389423282
 20
-27149.44004249265
 10
-7225.052861517976
 20
-27153.28061866452
 10
-7223.078252142975
 20
-27157.06894874265
 10
-7221.000737494539
 20
-27160.80179786374
 10
-7218.821660346101
 20
-27164.47617530515
  0
ARC
  5
79
330
2
100
AcDbEntity
  8
Access .2
  6
ByBlock
100
AcDbCircle
 10
-7065.761052435945
 20
-27066.63321876218
 30
0.0
 40
181.9672241210937
100
AcDbArc
 50
227.6653856187722
 51
229.1229473279663
  0
LWPOLYLINE
  5
7A
330
2
100
AcDbEntity
  8
Access .2
  6
ByBlock
100
AcDbPolyline
 90
        9
 70
     0
 43
0.0
 10
-7158.695012396883
 20
-27127.67759132077
 10
-7160.224187201571
 20
-27125.07615089108
 10
-7161.656010932039
 20
-27122.42936134031
 10
-7162.995793646882
 20
-27119.7281894653
 10
-7164.253728217196
 20
-27116.95041846921
 10
-7165.440373725008
 20
-27114.07340430906
 10
-7166.561772650789
 20
-27111.08585548093
 10
-7167.615117377351
 20
-27108.00083350827
 10
-7168.58405048282
 20
-27104.86777686765
  0
LWPOLYLINE
  5
7B
330
2
100
AcDbEntity
  8
Access .2
  6
ByBlock
100
AcDbPolyline
 90
       22
 70
     0
 43
0.0
 10
-7083.412602728914
 20
-27180.50339698483
 10
-7088.654424017976
 20
-27178.71708106687
 10
-7093.823369330476
 20
-27176.80210303952
 10
-7098.907597846102
 20
-27174.75980567624
 10
-7101.413701361727
 20
-27173.69144630124
 10
-7103.893559760163
 20
-27172.5918979614
 10
-7106.345341986727
 20
-27171.46146583249
 10
-7108.767278021883
 20
-27170.3004550903
 10
-7111.157597846101
 20
-27169.10910987546
 10
-7113.514531439851
 20
-27167.88761329343
 10
-7115.836491889069
 20
-27166.63633155515
 10
-7118.121709174227
 20
-27165.35532569577
 10
-7120.368840521883
 20
-27164.04490089109
 10
-7122.576421088289
 20
-27162.7051792114
 10
-7124.743169135164
 20
-27161.33616065671
 10
-7126.867986029695
 20
-27159.93784522702
 10
-7128.949956244539
 20
-27158.51035499265
 10
-7130.988347357821
 20
-27157.0533847778
 10
-7132.982549017977
 20
-27155.56687354733
 10
-7134.932439154695
 20
-27154.05051612546
 10
-7136.837834662507
 20
-27152.50382423093
 10
-7138.699040717195
 20
-27150.92649268796
  0
LWPOLYLINE
  5
7C
330
2
100
AcDbEntity
  8
Access .2
  6
ByBlock
100
AcDbPolyline
 90
        9
 70
     0
 43
0.0
 10
-7138.699040717195
 20
-27019.46225928952
 10
-7141.651860541414
 20
-27022.11149024655
 10
-7144.483769721102
 20
-27024.84250831296
 10
-7147.197881049226
 20
-27027.65964698484
 10
-7149.78766376407
 20
-27030.55649757077
 10
-7152.241826361727
 20
-27033.52048682858
 10
-7154.548344916413
 20
-27036.53849219968
 10
-7156.699284857821
 20
-27039.60178565671
 10
-7158.695012396883
 20
-27042.71116065671
  0
LWPOLYLINE
  5
7D
330
2
100
AcDbEntity
  8
Access .2
  6
ByBlock
100
AcDbPolyline
 90
       21
 70
     0
 43
0.0
 10
-7184.848027533601
 20
-26966.16636085202
 10
-7182.010991400789
 20
-26963.75913428952
 10
-7179.129216498445
 20
-26961.41233253171
 10
-7176.205510443757
 20
-26959.1260776489
 10
-7173.98688251407
 20
-26957.45102882077
 10
-7171.747197455477
 20
-26955.80979346921
 10
-7167.208623236726
 20
-26952.62815284421
 10
-7162.596745795321
 20
-26949.5792026489
 10
-7157.917790717196
 20
-26946.6602573364
 10
-7153.177129096102
 20
-26943.8682651489
 10
-7148.982243842195
 20
-26941.52677344968
 10
-7144.746770209383
 20
-26939.2774448364
 10
-7140.473271674226
 20
-26937.11789893796
 10
-7136.164250678132
 20
-26935.04575538327
 10
-7133.27301532657
 20
-26933.71177100827
 10
-7130.367802924226
 20
-26932.4151401489
 10
-7124.518010443757
 20
-26929.9313144653
 10
-7119.753850287508
 20
-26928.02823829343
 10
-7114.959416693757
 20
-26926.21671485593
 10
-7110.136662787508
 20
-26924.49582862546
 10
-7105.287358588289
 20
-26922.86545753171
  0
LWPOLYLINE
  5
7E
330
2
100
AcDbEntity
  8
Access .2
  6
ByBlock
100
AcDbPolyline
 90
       13
 70
     0
 43
0.0
 10
-7184.848027533601
 20
-26966.16636085202
 10
-7188.073613471101
 20
-26969.02805518796
 10
-7191.240056342195
 20
-26971.97446632077
 10
-7194.341374701569
 20
-26975.00199317624
 10
-7197.373174017977
 20
-26978.1090488403
 10
-7200.332707709383
 20
-26981.29557227781
 10
-7203.217900580476
 20
-26984.56241798093
 10
-7206.026982611726
 20
-26987.91098975827
 10
-7208.758061713289
 20
-26991.3428745239
 10
-7211.408574408601
 20
-26994.85917091061
 10
-7213.974492377352
 20
-26998.46000098874
 10
-7216.450322455476
 20
-27002.14414405515
 10
-7218.828069037508
 20
-27005.90867042234
  0
LWPOLYLINE
  5
7F
330
2
100
AcDbEntity
  8
Access .2
  6
ByBlock
100
AcDbPolyline
 90
        6
 70
     0
 43
0.0
 10
-7228.691716498445
 20
-27024.83768653562
 10
-7226.92389423282
 20
-27020.94870948483
 10
-7225.052861517976
 20
-27017.10813331296
 10
-7223.078252142975
 20
-27013.31980323483
 10
-7221.000737494539
 20
-27009.58695411374
 10
-7218.821660346101
 20
-27005.91257667233
  0
LWPOLYLINE
  5
80
330
2
100
AcDbEntity
  8
Access .2
  6
ByBlock
100
AcDbPolyline
 90
        9
 70
     0
 43
0.0
 10
-7158.695012396883
 20
-27042.71116065671
 10
-7160.224187201571
 20
-27045.3126010864
 10
-7161.656010932039
 20
-27047.95939063718
 10
-7162.995793646882
 20
-27050.66056251218
 10
-7164.253728217196
 20
-27053.43833350827
 10
-7165.440373725008
 20
-27056.31534766843
 10
-7166.561772650789
 20
-27059.30289649655
 10
-7167.615117377351
 20
-27062.38791846921
 10
-7168.58405048282
 20
-27065.52097510984
  0
LWPOLYLINE
  5
81
330
2
100
AcDbEntity
  8
Access .2
  6
ByBlock
100
AcDbPolyline
 90
       10
 70
     0
 43
0.0
 10
-7168.58405048282
 20
-27065.52097510984
 10
-7169.592900580477
 20
-27069.19425391843
 10
-7170.45026142032
 20
-27072.82535743405
 10
-7170.81403095157
 20
-27074.60398292234
 10
-7171.130803412508
 20
-27076.34800147702
 10
-7171.588017767977
 20
-27079.48343848874
 10
-7171.749028510165
 20
-27080.98777198483
 10
-7171.863713568757
 20
-27082.4430332153
 10
-7171.931950873446
 20
-27083.84293555905
 10
-7171.955022162508
 20
-27085.19034766843
  0
ARC
  5
82
330
2
100
AcDbEntity
  8
Access .2
  6
ByBlock
100
AcDbCircle
 10
-7065.761052435945
 20
-27103.7555332153
 30
0.0
 40
181.9672241210937
100
AcDbArc
 50
130.8770526720336
 51
132.3346143812278
  0
LWPOLYLINE
  5
83
330
2
100
AcDbEntity
  8
Access .2
  6
ByBlock
100
AcDbPolyline
 90
       22
 70
     0
 43
0.0
 10
-7083.412602728914
 20
-26989.88535499265
 10
-7088.654424017976
 20
-26991.67167091061
 10
-7093.823369330476
 20
-26993.58664893796
 10
-7098.907597846102
 20
-26995.62894630124
 10
-7101.413701361727
 20
-26996.69730567624
 10
-7103.893559760163
 20
-26997.79685401608
 10
-7106.345341986727
 20
-26998.92728614499
 10
-7108.767278021883
 20
-27000.08829688718
 10
-7111.157597846101
 20
-27001.27964210202
 10
-7113.514531439851
 20
-27002.50113868405
 10
-7115.836491889069
 20
-27003.75242042234
 10
-7118.121709174227
 20
-27005.03342628171
 10
-7120.368840521883
 20
-27006.3438510864
 10
-7122.576421088289
 20
-27007.68357276608
 10
-7124.743169135164
 20
-27009.05259132077
 10
-7126.867986029695
 20
-27010.45090675046
 10
-7128.949956244539
 20
-27011.87839698484
 10
-7130.988347357821
 20
-27013.33536719968
 10
-7132.982549017977
 20
-27014.82187843015
 10
-7134.932439154695
 20
-27016.33823585202
 10
-7136.837834662507
 20
-27017.88492774655
 10
-7138.699040717195
 20
-27019.46225928952
  0
LWPOLYLINE
  5
84
330
2
100
AcDbEntity
  8
Access .2
  6
ByBlock
100
AcDbPolyline
 90
        6
 70
     0
 43
0.0
 10
-6881.923924750399
 20
-26941.59574317624
 10
-6885.240880316804
 20
-26939.14341163327
 10
-6888.636967963289
 20
-26936.79801368405
 10
-6892.10846454532
 20
-26934.5626010864
 10
-6894.755742377352
 20
-26932.95328712155
 10
-6897.432042426179
 20
-26931.39066505124
  0
LWPOLYLINE
  5
85
330
2
100
AcDbEntity
  8
Access .2
  6
ByBlock
100
AcDbPolyline
 90
        6
 70
     0
 43
0.0
 10
-6881.923924750399
 20
-27228.79300880124
 10
-6885.240880316804
 20
-27231.24534034421
 10
-6888.636967963289
 20
-27233.59073829343
 10
-6892.10846454532
 20
-27235.82615089108
 10
-6894.755742377352
 20
-27237.43546485593
 10
-6897.432042426179
 20
-27238.99808692624
  0
LWPOLYLINE
  5
86
330
2
100
AcDbEntity
  8
Access .2
  6
ByBlock
100
AcDbPolyline
 90
        9
 70
     0
 43
0.0
 10
-6781.419652289461
 20
-27257.58829688718
 10
-6806.306828803133
 20
-27258.86887550046
 10
-6831.492589301181
 20
-27260.0372104614
 10
-6856.881657904695
 20
-27261.07834815671
 10
-6882.308598822664
 20
-27261.98996925046
 10
-6907.962163275789
 20
-27262.79160499265
 10
-6933.942967719149
 20
-27263.50272559812
 10
-6968.879094428132
 20
-27264.34140968015
 10
-6986.848393744539
 20
-27264.74070167233
  0
LWPOLYLINE
  5
87
330
2
100
AcDbEntity
  8
Access .2
  6
ByBlock
100
AcDbPolyline
 90
        9
 70
     0
 43
0.0
 10
-6781.419652289461
 20
-26912.8004550903
 10
-6806.306828803133
 20
-26911.51987647702
 10
-6831.492589301181
 20
-26910.35154151609
 10
-6856.881657904695
 20
-26909.31040382077
 10
-6882.308598822664
 20
-26908.39878272702
 10
-6907.962163275789
 20
-26907.59714698483
 10
-6933.942967719149
 20
-26906.88602637937
 10
-6968.879094428132
 20
-26906.04734229733
 10
-6986.848393744539
 20
-26905.64805030515
  0
ARC
  5
88
330
2
100
AcDbEntity
  8
Access .2
  6
ByBlock
100
AcDbCircle
 10
-6997.277715033601
 20
-27085.18790626218
 30
0.0
 40
105.2026977539062
100
AcDbArc
 50
354.5401068200661
 51
359.9964889730214
  0
ARC
  5
89
330
2
100
AcDbEntity
  8
Access .2
  6
ByBlock
100
AcDbCircle
 10
-7006.756841010164
 20
-27064.5225620239
 30
0.0
 40
128.1183013916015
100
AcDbArc
 50
277.2478868753262
 51
285.0294937265035
  0
LWPOLYLINE
  5
8A
330
2
100
AcDbEntity
  8
Access .2
  6
ByBlock
100
AcDbPolyline
 90
        9
 70
     0
 43
0.0
 10
-6965.980290717195
 20
-27261.23581885984
 10
-6970.195744818759
 20
-27261.59067725827
 10
-6974.415227240633
 20
-27261.89878272702
 10
-6978.636479682039
 20
-27262.17868995358
 10
-6984.953923529696
 20
-27262.55637550046
 10
-6991.235112494539
 20
-27262.86863135984
 10
-6995.32397968204
 20
-27263.02262305905
 10
-7002.112737006257
 20
-27263.16965675046
 10
-7007.522038764069
 20
-27263.19437598874
  0
LWPOLYLINE
  5
8B
330
2
100
AcDbEntity
  8
Access .2
  6
ByBlock
100
AcDbPolyline
 90
        9
 70
     0
 43
0.0
 10
-7042.431035346101
 20
-27260.98337745359
 10
-7035.562321967195
 20
-27261.73533057858
 10
-7028.648259467195
 20
-27262.34836768796
 10
-7025.143925971102
 20
-27262.60007667233
 10
-7021.628178900789
 20
-27262.81028175046
 10
-7018.161259955476
 20
-27262.9742832153
 10
-7014.686040228913
 20
-27263.09397315671
 10
-7011.106145209383
 20
-27263.16916846921
 10
-7007.522038764069
 20
-27263.19437598874
  0
ARC
  5
8C
330
2
100
AcDbEntity
  8
Access .2
  6
ByBlock
100
AcDbCircle
 10
-6993.997746771883
 20
-26936.06638526608
 30
0.0
 40
328.7527770996094
100
AcDbArc
 50
260.1413369619365
 51
271.2461040539165
  0
ARC
  5
8D
330
2
100
AcDbEntity
  8
Access .2
  6
ByBlock
100
AcDbCircle
 10
-7006.873845404695
 20
-26891.77219581296
 30
0.0
 40
371.42041015625
100
AcDbArc
 50
270.0840156522395
 51
272.5670900494535
  0
ARC
  5
8E
330
2
100
AcDbEntity
  8
Access .2
  6
ByBlock
100
AcDbCircle
 10
-7006.894841498445
 20
-26891.29538917233
 30
0.0
 40
371.8975524902344
100
AcDbArc
 50
270.0869662957347
 51
272.5655737025081
  0
LWPOLYLINE
  5
8F
330
2
100
AcDbEntity
  8
Access .2
  6
ByBlock
100
AcDbPolyline
 90
        6
 70
     0
 43
0.0
 10
-7007.522038764069
 20
-27192.69437598874
 10
-7012.735295600008
 20
-27192.62113380124
 10
-7017.978215521883
 20
-27192.40482520749
 10
-7023.264653510164
 20
-27192.05387305905
 10
-7028.597905463289
 20
-27191.57926368406
 10
-7034.100041693758
 20
-27190.97739600827
  0
LWPOLYLINE
  5
90
330
2
100
AcDbEntity
  8
Access .2
  6
ByBlock
100
AcDbPolyline
 90
        5
 70
     0
 43
0.0
 10
-7056.541203803132
 20
-27187.45444678952
 10
-7050.957524603915
 20
-27188.49527930905
 10
-7045.353459662507
 20
-27189.42478370359
 10
-7039.733403510163
 20
-27190.25199317624
 10
-7034.100041693758
 20
-27190.97715186765
  0
ARC
  5
91
330
2
100
AcDbEntity
  8
Access .2
  6
ByBlock
100
AcDbCircle
 10
-7007.497685736726
 20
-27059.2389316528
 30
0.0
 40
133.454833984375
100
AcDbArc
 50
270.666419033932
 51
277.2772159269773
  0
ARC
  5
92
330
2
100
AcDbEntity
  8
Access .2
  6
ByBlock
100
AcDbCircle
 10
-7007.520940131257
 20
-27058.85721778562
 30
0.0
 40
133.837158203125
100
AcDbArc
 50
269.9995262124785
 51
270.6703054516554
  0
ARC
  5
93
330
2
100
AcDbEntity
  8
Access .2
  6
ByBlock
100
AcDbCircle
 10
-7007.535954779695
 20
-27058.24955176999
 30
0.0
 40
134.4448089599609
100
AcDbArc
 50
270.0059329297222
 51
270.6778254804876
  0
LWPOLYLINE
  5
94
330
2
100
AcDbEntity
  8
Access .2
  6
ByBlock
100
AcDbPolyline
 90
       12
 70
     0
 43
0.0
 10
-6897.432042426179
 20
-27238.99808692624
 10
-6901.802922553132
 20
-27241.44211768796
 10
-6906.225926703523
 20
-27243.79477882077
 10
-6910.700566596101
 20
-27246.05021094968
 10
-6912.959294623445
 20
-27247.13382911374
 10
-6915.233708685945
 20
-27248.18290137937
 10
-6917.524907416414
 20
-27249.1934604614
 10
-6919.833562201571
 20
-27250.1622104614
 10
-6922.054387396882
 20
-27251.04587745359
 10
-6924.291051215242
 20
-27251.88840675046
 10
-6926.756627387117
 20
-27252.76450538327
 10
-6929.237431830476
 20
-27253.5958042114
  0
LWPOLYLINE
  5
95
330
2
100
AcDbEntity
  8
Access .2
  6
ByBlock
100
AcDbPolyline
 90
        7
 70
     0
 43
0.0
 10
-6929.237431830476
 20
-27253.5958042114
 10
-6933.421544379304
 20
-27254.89689063718
 10
-6937.635869330477
 20
-27256.09592628171
 10
-6941.875249213289
 20
-27257.19864844968
 10
-6946.136571234773
 20
-27258.1988925903
 10
-6950.418095892977
 20
-27259.08475684811
 10
-6954.718694037508
 20
-27259.84488868405
  0
LWPOLYLINE
  5
96
330
2
100
AcDbEntity
  8
Access .2
  6
ByBlock
100
AcDbPolyline
 90
        5
 70
     0
 43
0.0
 10
-6954.71198017032
 20
-27259.88529395749
 10
-6957.283452338289
 20
-27260.27158546139
 10
-6959.861760443757
 20
-27260.6124057739
 10
-6962.91724140079
 20
-27260.96164893796
 10
-6965.978154486727
 20
-27261.26066016843
  0
ELLIPSE
  5
97
330
2
100
AcDbEntity
  8
Access .2
  6
ByBlock
100
AcDbEllipse
 10
-7031.163213080477
 20
-27059.54496192624
 30
0.0
 11
118.2216186523437
 21
-88.52703857421879
 31
0.0
210
0.0
220
0.0
230
1.0
 40
0.8422167034274464
 41
5.972350120544431
 42
6.182943820953367
  0
ELLIPSE
  5
98
330
2
100
AcDbEntity
  8
Access .2
  6
ByBlock
100
AcDbEllipse
 10
-7027.903142279694
 20
-27064.51719093015
 30
0.0
 11
117.613037109375
 21
-79.77679443359375
 31
0.0
210
0.0
220
0.0
230
1.0
 40
0.8532996340897769
 41
5.648682594299316
 42
5.926985263824461
  0
ARC
  5
99
330
2
100
AcDbEntity
  8
Access .2
  6
ByBlock
100
AcDbCircle
 10
-6996.598943060945
 20
-27085.46030616452
 30
0.0
 40
104.4921035766601
100
AcDbArc
 50
316.3459145638692
 51
330.0076695820311
  0
LWPOLYLINE
  5
9A
330
2
100
AcDbEntity
  8
Access .2
  6
ByBlock
100
AcDbPolyline
 90
       13
 70
     0
 43
0.0
 10
-6892.552190131258
 20
-27095.19785499264
 10
-6892.998021430085
 20
-27099.09879493405
 10
-6893.587560004305
 20
-27102.97495460202
 10
-6894.318333930086
 20
-27106.81760596921
 10
-6895.187962836335
 20
-27110.61942481686
 10
-6896.194218939851
 20
-27114.37449073483
 10
-6897.334782904696
 20
-27118.07785987546
 10
-6898.607396430086
 20
-27121.72532081296
 10
-6899.892369574617
 20
-27125.02750587155
 10
-6901.28540546329
 20
-27128.27707862546
 10
-6902.785039252352
 20
-27131.47239112546
 10
-6904.389989203524
 20
-27134.61185645749
 10
-6906.099461859773
 20
-27137.69407081296
  0
ARC
  5
9B
330
2
100
AcDbEntity
  8
Access .2
  6
ByBlock
100
AcDbCircle
 10
-7006.756841010164
 20
-27105.86618995359
 30
0.0
 40
128.1183013916015
100
AcDbArc
 50
74.97050627349645
 51
82.75211312467382
  0
LWPOLYLINE
  5
9C
330
2
100
AcDbEntity
  8
Access .2
  6
ByBlock
100
AcDbPolyline
 90
        9
 70
     0
 43
0.0
 10
-6965.980290717195
 20
-26909.15293311765
 10
-6970.195744818759
 20
-26908.79807471921
 10
-6974.415227240633
 20
-26908.48996925046
 10
-6978.636479682039
 20
-26908.2100620239
 10
-6984.953923529696
 20
-26907.83237647702
 10
-6991.235112494539
 20
-26907.52012061765
 10
-6995.32397968204
 20
-26907.36612891843
 10
-7002.112737006257
 20
-26907.21909522702
 10
-7007.522038764069
 20
-26907.19437598874
  0
LWPOLYLINE
  5
9D
330
2
100
AcDbEntity
  8
Access .2
  6
ByBlock
100
AcDbPolyline
 90
        6
 70
     0
 43
0.0
 10
-7007.522038764069
 20
-26977.69437598874
 10
-7012.735295600008
 20
-26977.76761817624
 10
-7017.978215521883
 20
-26977.98392676999
 10
-7023.264653510164
 20
-26978.33487891843
 10
-7028.597905463289
 20
-26978.80948829343
 10
-7034.100041693758
 20
-26979.41135596921
  0
LWPOLYLINE
  5
9E
330
2
100
AcDbEntity
  8
Access .2
  6
ByBlock
100
AcDbPolyline
 90
        5
 70
     0
 43
0.0
 10
-7056.541203803132
 20
-26982.93430518796
 10
-7050.957524603915
 20
-26981.89347266843
 10
-7045.353459662507
 20
-26980.9639682739
 10
-7039.733403510163
 20
-26980.13675880124
 10
-7034.100041693758
 20
-26979.41160010983
  0
ARC
  5
9F
330
2
100
AcDbEntity
  8
Access .2
  6
ByBlock
100
AcDbCircle
 10
-7007.503545111728
 20
-27111.13590430905
 30
0.0
 40
133.4412384033203
100
AcDbArc
 50
82.71953300181762
 51
89.33099913171904
  0
ARC
  5
A0
330
2
100
AcDbEntity
  8
Access .2
  6
ByBlock
100
AcDbCircle
 10
-7007.520940131257
 20
-27111.53153419187
 30
0.0
 40
133.837158203125
100
AcDbArc
 50
89.32969454834449
 51
90.00047378752141
  0
LWPOLYLINE
  5
A1
330
2
100
AcDbEntity
  8
Access .2
  6
ByBlock
100
AcDbPolyline
 90
        9
 70
     0
 43
0.0
 10
-7042.431035346101
 20
-26909.4053745239
 10
-7035.562321967195
 20
-26908.6534213989
 10
-7028.648259467195
 20
-26908.04038428952
 10
-7025.143925971102
 20
-26907.78867530515
 10
-7021.628178900789
 20
-26907.57847022702
 10
-7018.161259955476
 20
-26907.41446876218
 10
-7014.686040228913
 20
-26907.29477882077
 10
-7011.106145209383
 20
-26907.21958350827
 10
-7007.522038764069
 20
-26907.19437598874
  0
ARC
  5
A2
330
2
100
AcDbEntity
  8
Access .2
  6
ByBlock
100
AcDbCircle
 10
-6993.997746771883
 20
-27234.3223667114
 30
0.0
 40
328.7528076171875
100
AcDbArc
 50
88.75389594608344
 51
99.85882080814471
  0
ARC
  5
A3
330
2
100
AcDbEntity
  8
Access .2
  6
ByBlock
100
AcDbCircle
 10
-7006.873845404695
 20
-27278.61655616452
 30
0.0
 40
371.42041015625
100
AcDbArc
 50
87.43290995054648
 51
89.91598434770834
  0
ARC
  5
A4
330
2
100
AcDbEntity
  8
Access .2
  6
ByBlock
100
AcDbCircle
 10
-7006.894841498445
 20
-27279.09336280515
 30
0.0
 40
371.8975524902344
100
AcDbArc
 50
87.43442629749193
 51
89.9130337042132
  0
ELLIPSE
  5
A5
330
2
100
AcDbEntity
  8
Access .2
  6
ByBlock
100
AcDbEllipse
 10
-7031.163213080477
 20
-27110.84379005124
 30
0.0
 11
118.2216186523437
 21
88.52709960937501
 31
0.0
210
0.0
220
0.0
230
1.0
 40
0.8422167034274464
 41
0.1002415418624878
 42
0.3108353316783905
  0
ELLIPSE
  5
A6
330
2
100
AcDbEntity
  8
Access .2
  6
ByBlock
100
AcDbEllipse
 10
-7027.903142279694
 20
-27105.87156104733
 30
0.0
 11
117.613037109375
 21
79.77679443359375
 31
0.0
210
0.0
220
0.0
230
1.0
 40
0.8532996340897769
 41
0.3562000691890716
 42
0.6345028877258301
  0
ARC
  5
A7
330
2
100
AcDbEntity
  8
Access .2
  6
ByBlock
100
AcDbCircle
 10
-6996.598943060945
 20
-27084.92844581296
 30
0.0
 40
104.4921035766601
100
AcDbArc
 50
29.99233041796887
 51
43.65408543613082
  0
LWPOLYLINE
  5
A8
330
2
100
AcDbEntity
  8
Access .2
  6
ByBlock
100
AcDbPolyline
 90
       13
 70
     0
 43
0.0
 10
-6892.552190131258
 20
-27075.19089698483
 10
-6892.998021430085
 20
-27071.28995704343
 10
-6893.587560004305
 20
-27067.41379737546
 10
-6894.318333930086
 20
-27063.57114600827
 10
-6895.187962836335
 20
-27059.76932716061
 10
-6896.194218939851
 20
-27056.01426124265
 10
-6897.334782904696
 20
-27052.31089210202
 10
-6898.607396430086
 20
-27048.66343116452
 10
-6899.892369574617
 20
-27045.36124610593
 10
-6901.28540546329
 20
-27042.11167335202
 10
-6902.785039252352
 20
-27038.91636085202
 10
-6904.389989203524
 20
-27035.77689551999
 10
-6906.099461859773
 20
-27032.69468116452
  0
ARC
  5
A9
330
2
100
AcDbEntity
  8
Access .2
  6
ByBlock
100
AcDbCircle
 10
-6997.167973822664
 20
-27085.19803809811
 30
0.0
 40
105.0930404663086
100
AcDbArc
 50
0.0019822158214878
 51
5.464056288181557
  0
LWPOLYLINE
  5
AA
330
2
100
AcDbEntity
  8
Access .2
  6
ByBlock
100
AcDbPolyline
 90
        7
 70
     0
 43
0.0
 10
-6929.237431830476
 20
-26916.79294776609
 10
-6933.421544379304
 20
-26915.4918613403
 10
-6937.635869330477
 20
-26914.29282569577
 10
-6941.875249213289
 20
-26913.1901035278
 10
-6946.136571234773
 20
-26912.18985938718
 10
-6950.418095892977
 20
-26911.30399512937
 10
-6954.718694037508
 20
-26910.54386329343
  0
LWPOLYLINE
  5
AB
330
2
100
AcDbEntity
  8
Access .2
  6
ByBlock
100
AcDbPolyline
 90
        5
 70
     0
 43
0.0
 10
-6954.71198017032
 20
-26910.50345801999
 10
-6957.283452338289
 20
-26910.11716651608
 10
-6959.861760443757
 20
-26909.77634620359
 10
-6962.91724140079
 20
-26909.42710303952
 10
-6965.978154486727
 20
-26909.12809180905
  0
LWPOLYLINE
  5
AC
330
2
100
AcDbEntity
  8
Access .2
  6
ByBlock
100
AcDbPolyline
 90
       12
 70
     0
 43
0.0
 10
-6897.432042426179
 20
-26931.39066505124
 10
-6901.802922553132
 20
-26928.94663428952
 10
-6906.225926703523
 20
-26926.59397315671
 10
-6910.700566596101
 20
-26924.3385410278
 10
-6912.959294623445
 20
-26923.25492286374
 10
-6915.233708685945
 20
-26922.20585059811
 10
-6917.524907416414
 20
-26921.19529151609
 10
-6919.833562201571
 20
-26920.22654151609
 10
-6922.054387396882
 20
-26919.3428745239
 10
-6924.291051215242
 20
-26918.50034522702
 10
-6926.756627387117
 20
-26917.62424659421
 10
-6929.237431830476
 20
-26916.79294776609
  0
LINE
  5
AD
330
2
100
AcDbEntity
  8
Access .2
  6
ByBlock
100
AcDbLine
 10
-6816.022404975008
 20
-27141.70060157468
 30
0.0
 11
-6816.022404975008
 21
-27085.19437598874
 31
0.0
  0
LINE
  5
AE
330
2
100
AcDbEntity
  8
Access .1
  6
ByBlock
100
AcDbLine
 10
-6771.84869892032
 20
-27085.19437598874
 30
0.0
 11
-6771.84869892032
 21
-27132.69437598874
 31
0.0
  0
ARC
  5
B0
330
2
100
AcDbEntity
  8
Access .1
  6
ByBlock
100
AcDbCircle
 10
-6809.92535907657
 20
-27165.56540870358
 30
0.0
 40
25.5
100
AcDbArc
 50
241.3521155028232
 51
103.8314361966493
  0
ARC
  5
B1
330
2
100
AcDbEntity
  8
Access .2
  6
ByBlock
100
AcDbCircle
 10
-6895.859196967196
 20
-27162.9649448364
 30
0.0
 40
55.00863647460938
100
AcDbArc
 50
336.6973096192805
 51
347.7624636542868
  0
LINE
  5
B2
330
2
100
AcDbEntity
  8
Access .2
  6
ByBlock
100
AcDbLine
 10
-6866.791234320711
 20
-27215.27237891843
 30
0.0
 11
-6866.299321478914
 21
-27214.76249122312
 31
0.0
  0
ARC
  5
B3
330
2
100
AcDbEntity
  8
Access .2
  6
ByBlock
100
AcDbCircle
 10
-6941.804631537507
 20
-27143.64188575437
 30
0.0
 40
103.7677307128906
100
AcDbArc
 50
316.4403312221912
 51
318.4325552788167
  0
ARC
  5
B4
330
2
100
AcDbEntity
  8
Access .2
  6
ByBlock
100
AcDbCircle
 10
-6972.171269721101
 20
-27112.72336768796
 30
0.0
 40
147.0522308349609
100
AcDbArc
 50
309.8161973376789
 51
314.4049856560166
  0
ARC
  5
B5
330
2
100
AcDbEntity
  8
Access .2
  6
ByBlock
100
AcDbCircle
 10
-6961.239873236727
 20
-27125.71653175046
 30
0.0
 40
130.0720825195312
100
AcDbArc
 50
307.5777554621463
 51
309.7858000318624
  0
ARC
  5
B6
330
2
100
AcDbEntity
  8
Access .2
  6
ByBlock
100
AcDbCircle
 10
-6953.277928656648
 20
-27132.7110385864
 30
0.0
 40
119.6146850585937
100
AcDbArc
 50
314.6384289552309
 51
316.433260797849
  0
LINE
  5
B7
330
2
100
AcDbEntity
  8
Access .2
  6
ByBlock
100
AcDbLine
 10
-6866.790959662508
 20
-27215.2721347778
 30
0.0
 11
-6866.62848407657
 21
-27215.12931251218
 31
0.0
  0
ARC
  5
B8
330
2
100
AcDbEntity
  8
Access .2
  6
ByBlock
100
AcDbCircle
 10
-6956.630193060945
 20
-27127.3565463989
 30
0.0
 40
125.6765518188476
100
AcDbArc
 50
321.1992596778911
 51
323.6916013780124
  0
ARC
  5
B9
330
2
100
AcDbEntity
  8
Access .2
  6
ByBlock
100
AcDbCircle
 10
-6952.462590521882
 20
-27130.82932471921
 30
0.0
 40
120.2538757324218
100
AcDbArc
 50
321.2438754227623
 51
323.8164981467194
  0
ARC
  5
BA
330
2
100
AcDbEntity
  8
Access .2
  6
ByBlock
100
AcDbCircle
 10
-6957.909367865633
 20
-27126.42185401608
 30
0.0
 40
127.2607192993164
100
AcDbArc
 50
317.6754592546211
 51
321.2315859949891
  0
LINE
  5
BB
330
2
100
AcDbEntity
  8
Access .2
  6
ByBlock
100
AcDbLine
 10
-6866.299321478914
 20
-27214.76249122312
 30
0.0
 11
-6865.859624213289
 21
-27214.3024082153
 31
0.0
  0
ARC
  5
BC
330
2
100
AcDbEntity
  8
Access .2
  6
ByBlock
100
AcDbCircle
 10
-6963.415471381257
 20
-27121.47660255124
 30
0.0
 40
134.6617126464844
100
AcDbArc
 50
316.4232167671785
 51
317.697221486436
  0
LWPOLYLINE
  5
BD
330
2
100
AcDbEntity
  8
Access .2
  6
ByBlock
100
AcDbPolyline
 90
        6
 70
     0
 43
0.0
 10
-6847.558903998446
 20
-27189.38816260983
 10
-6849.014348334383
 20
-27192.05057716062
 10
-6850.880009955476
 20
-27195.17795753171
 10
-6852.875035590241
 20
-27198.25309180905
 10
-6854.991765326571
 20
-27201.27543067624
 10
-6855.355016058992
 20
-27201.77341651608
  0
LWPOLYLINE
  5
BE
330
2
100
AcDbEntity
  8
Access .2
  6
ByBlock
100
AcDbPolyline
 90
        6
 70
     0
 43
0.0
 10
-6847.595250433993
 20
-27189.4454135864
 10
-6848.466832465241
 20
-27191.05765723874
 10
-6849.372441596101
 20
-27192.64866065671
 10
-6851.275060004304
 20
-27195.77475928952
 10
-6853.28799945743
 20
-27198.83237647702
 10
-6855.40274555118
 20
-27201.82346534421
  0
ARC
  5
BF
330
2
100
AcDbEntity
  8
Access .2
  6
ByBlock
100
AcDbCircle
 10
-6908.512791937899
 20
-27157.45218848874
 30
0.0
 40
68.81294250488281
100
AcDbArc
 50
332.3483057146029
 51
336.6533868349955
  0
ARC
  5
C0
330
2
100
AcDbEntity
  8
Access .2
  6
ByBlock
100
AcDbCircle
 10
-6910.195103949617
 20
-27156.50882911374
 30
0.0
 40
70.73577880859375
100
AcDbArc
 50
332.2491093955459
 51
334.74664592066
  0
ARC
  5
C1
330
2
100
AcDbEntity
  8
Access .2
  6
ByBlock
100
AcDbCircle
 10
-6899.842931098054
 20
-27161.31418800046
 30
0.0
 40
59.32105255126953
100
AcDbArc
 50
334.6781198075734
 51
336.7550870708157
  0
LWPOLYLINE
  5
C2
330
2
100
AcDbEntity
  8
Access .1
  6
ByBlock
100
AcDbPolyline
 90
        8
 70
     0
 43
0.0
 10
-6837.439000433993
 20
-27164.56516456296
 10
-6837.428563422273
 20
-27164.90488624265
 10
-6837.402653998445
 20
-27165.06449317624
 10
-6837.31696063907
 20
-27165.27536964108
 10
-6837.106297797274
 20
-27165.46836280515
 10
-6836.961583441804
 20
-27165.52390479733
 10
-6836.636052435945
 20
-27165.56369971921
 10
-6836.470586127352
 20
-27165.56516456296
  0
LWPOLYLINE
  5
C3
330
2
100
AcDbEntity
  8
Access .1
  6
ByBlock
100
AcDbPolyline
 90
        8
 70
     0
 43
0.0
 10
-6818.375340766023
 20
-27164.56540870359
 10
-6818.390843695711
 20
-27164.86252784421
 10
-6818.423283881258
 20
-27165.00644874265
 10
-6818.515752142977
 20
-27165.20560645749
 10
-6818.746709174226
 20
-27165.43235206296
 10
-6818.894200629305
 20
-27165.50394630124
 10
-6819.218571967195
 20
-27165.56296729733
 10
-6819.375340766024
 20
-27165.56540870358
  0
ARC
  5
C4
330
2
100
AcDbEntity
  8
Access .2
  6
ByBlock
100
AcDbCircle
 10
-6926.63516742618
 20
-27160.7086582153
 30
0.0
 40
85.91203308105468
100
AcDbArc
 50
356.8533082846597
 51
359.6036790168867
  0
LINE
  5
C5
330
2
100
AcDbEntity
  8
Access .1
  6
ByBlock
100
AcDbLine
 10
-6832.668034857821
 20
-27165.56540870358
 30
0.0
 11
-6819.375340766024
 21
-27165.56540870358
 31
0.0
  0
ARC
  5
C6
330
2
100
AcDbEntity
  8
Access .1
  6
ByBlock
100
AcDbCircle
 10
-6809.92535907657
 20
-27165.56540870358
 30
0.0
 40
25.5
100
AcDbArc
 50
198.2687419352276
 51
241.3521155028232
  0
ARC
  5
C7
330
2
100
AcDbEntity
  8
Access .1
  6
ByBlock
100
AcDbCircle
 10
-6809.92535907657
 20
-27165.56540870358
 30
0.0
 40
25.5
100
AcDbArc
 50
196.3283137307171
 51
198.2183086315703
  0
LINE
  5
C8
330
2
100
AcDbEntity
  8
Access .1
  6
ByBlock
100
AcDbLine
 10
-6836.46555072696
 20
-27165.56540870358
 30
0.0
 11
-6832.668034857821
 21
-27165.56540870358
 31
0.0
  0
LINE
  5
C9
330
2
100
AcDbEntity
  8
Access .2
  6
ByBlock
100
AcDbLine
 10
-6842.088963812898
 20
-27174.62546729733
 30
0.0
 11
-6842.040837592195
 21
-27174.39963721921
 31
0.0
  0
LWPOLYLINE
  5
CA
330
2
100
AcDbEntity
  8
Access .2
  6
ByBlock
100
AcDbPolyline
 90
        5
 70
     0
 43
0.0
 10
-6840.853307074617
 20
-27165.42453956296
 10
-6841.080418891023
 20
-27168.20237159421
 10
-6841.422368353914
 20
-27170.92905616452
 10
-6841.70581561954
 20
-27172.67508887937
 10
-6842.040837592195
 20
-27174.39963721921
  0
LINE
  5
CB
330
2
100
AcDbEntity
  8
Access .1
  6
ByBlock
100
AcDbLine
 10
-6834.396855658602
 20
-27172.73447608639
 30
0.0
 11
-6834.403203314852
 21
-27172.71268653562
 31
0.0
  0
ARC
  5
CC
330
2
100
AcDbEntity
  8
Access .1
  6
ByBlock
100
AcDbCircle
 10
-6809.92535907657
 20
-27165.56540870358
 30
0.0
 40
25.5
100
AcDbArc
 50
180.0000496324717
 51
196.2773204800089
  0
LINE
  5
CD
330
2
100
AcDbEntity
  8
Access .1
  6
ByBlock
100
AcDbLine
 10
-6836.409184760164
 20
-27165.56540870358
 30
0.0
 11
-6836.47534686954
 21
-27165.56540870358
 31
0.0
  0
LINE
  5
CE
330
2
100
AcDbEntity
  8
Access .1
  6
ByBlock
100
AcDbLine
 10
-6836.46555072696
 20
-27165.56540870358
 30
0.0
 11
-6836.47534686954
 21
-27165.56540870358
 31
0.0
  0
LINE
  5
CF
330
2
100
AcDbEntity
  8
Access .1
  6
ByBlock
100
AcDbLine
 10
-6834.14005023868
 20
-27173.55900001218
 30
0.0
 11
-6834.147008246493
 21
-27173.53788184812
 31
0.0
  0
LINE
  5
D0
330
2
100
AcDbEntity
  8
Access .2
  6
ByBlock
100
AcDbLine
 10
-6834.037541693757
 20
-27144.70060157468
 30
0.0
 11
-6821.511449164461
 21
-27144.69919776608
 31
0.0
  0
LINE
  5
D1
330
2
100
AcDbEntity
  8
Access .1
  6
ByBlock
100
AcDbLine
 10
-6821.801762885164
 20
-27144.91538428952
 30
0.0
 11
-6836.47534686954
 21
-27144.91538428952
 31
0.0
  0
LINE
  5
D2
330
2
100
AcDbEntity
  8
Access .1
  6
ByBlock
100
AcDbLine
 10
-6832.668034857821
 20
-27144.91538428952
 30
0.0
 11
-6819.375340766024
 21
-27144.91538428952
 31
0.0
  0
LINE
  5
D3
330
2
100
AcDbEntity
  8
Access .2
  6
ByBlock
100
AcDbLine
 10
-6834.037144965242
 20
-27144.70060157468
 30
0.0
 11
-6821.511449164461
 21
-27144.69919776608
 31
0.0
  0
LINE
  5
D4
330
2
100
AcDbEntity
  8
Access .2
  6
ByBlock
100
AcDbLine
 10
-6839.723515814852
 20
-27144.70041846921
 30
0.0
 11
-6834.037755316805
 21
-27144.70060157468
 31
0.0
  0
LINE
  5
D5
330
2
100
AcDbEntity
  8
Access .1
  6
ByBlock
100
AcDbLine
 10
-6836.46555072696
 20
-27144.91538428952
 30
0.0
 11
-6832.668034857821
 21
-27144.91538428952
 31
0.0
  0
LINE
  5
D6
330
2
100
AcDbEntity
  8
Access .2
  6
ByBlock
100
AcDbLine
 10
-6839.723515814852
 20
-27144.70041846921
 30
0.0
 11
-6834.037358588289
 21
-27144.70060157468
 31
0.0
  0
ARC
  5
D7
330
2
100
AcDbEntity
  8
Access .2
  6
ByBlock
100
AcDbCircle
 10
-7703.23004657657
 20
-27147.73734473874
 30
0.0
 40
862.5088500976563
100
AcDbArc
 50
359.8960611032388
 51
0.1352536547404742
  0
LWPOLYLINE
  5
D8
330
2
100
AcDbEntity
  8
Access .1
  6
ByBlock
100
AcDbPolyline
 90
        7
 70
     0
 43
0.0
 10
-6837.439000433993
 20
-27145.91538428952
 10
-6837.417821234772
 20
-27145.5801792114
 10
-6837.342442816805
 20
-27145.34574317624
 10
-6837.204472846102
 20
-27145.15018653562
 10
-6837.010075873445
 20
-27145.00919532468
 10
-6836.785802191805
 20
-27144.93583106686
 10
-6836.46555072696
 20
-27144.91538428952
  0
LINE
  5
D9
330
2
100
AcDbEntity
  8
Access .2
  6
ByBlock
100
AcDbLine
 10
-6840.722173041413
 20
-27146.64591407468
 30
0.0
 11
-6840.723393744539
 21
-27145.70102882077
 31
0.0
  0
ARC
  5
DA
330
2
100
AcDbEntity
  8
Access .2
  6
ByBlock
100
AcDbCircle
 10
-5883.328557318757
 20
-27152.21756934812
 30
0.0
 40
957.3986206054687
100
AcDbArc
 50
179.8255209984328
 51
180.1416631346068
  0
LINE
  5
DB
330
2
100
AcDbEntity
  8
Access .2
  6
ByBlock
100
AcDbLine
 10
-6840.722356146883
 20
-27147.19016456296
 30
0.0
 11
-6840.72159320743
 21
-27146.83628272702
 31
0.0
  0
LINE
  5
DC
330
2
100
AcDbEntity
  8
Access .2
  6
ByBlock
100
AcDbLine
 10
-6840.722142523836
 20
-27146.83628272702
 30
0.0
 11
-6840.722203558993
 21
-27146.64591407468
 31
0.0
  0
ARC
  5
DD
330
2
100
AcDbEntity
  8
Access .2
  6
ByBlock
100
AcDbCircle
 10
-7078.707829779695
 20
-27158.94181251218
 30
0.0
 40
237.9954071044922
100
AcDbArc
 50
359.4315813595581
 51
0.1006118806354886
  0
ARC
  5
DE
330
2
100
AcDbEntity
  8
Access .2
  6
ByBlock
100
AcDbCircle
 10
-8425.633000678134
 20
-27161.17069434812
 30
0.0
 40
1584.921997070312
100
AcDbArc
 50
0.0956825014067801
 51
0.2381115402618786
  0
ARC
  5
DF
330
2
100
AcDbEntity
  8
Access .2
  6
ByBlock
100
AcDbCircle
 10
-5883.404362982819
 20
-27152.19352149655
 30
0.0
 40
957.32275390625
100
AcDbArc
 50
179.8269416682639
 51
180.1430701443706
  0
ARC
  5
E0
330
2
100
AcDbEntity
  8
Access .2
  6
ByBlock
100
AcDbCircle
 10
-7373.180547064851
 20
-27147.94809913327
 30
0.0
 40
532.4594116210938
100
AcDbArc
 50
359.8543197941883
 51
0.0815589962575006
  0
LINE
  5
E1
330
2
100
AcDbEntity
  8
Access .1
  6
ByBlock
100
AcDbLine
 10
-6837.439000433993
 20
-27148.26938819577
 30
0.0
 11
-6837.439000433993
 21
-27164.56516456296
 31
0.0
  0
LINE
  5
E2
330
2
100
AcDbEntity
  8
Access .1
  6
ByBlock
100
AcDbLine
 10
-6837.805821723055
 20
-27163.94370460202
 30
0.0
 11
-6837.805821723055
 21
-27163.94217872311
 31
0.0
  0
LINE
  5
E3
330
2
100
AcDbEntity
  8
Access .1
  6
ByBlock
100
AcDbLine
 10
-6837.439000433993
 20
-27148.24851417233
 30
0.0
 11
-6837.439000433993
 21
-27145.91538428952
 31
0.0
  0
LINE
  5
E4
330
2
100
AcDbEntity
  8
Access .1
  6
ByBlock
100
AcDbLine
 10
-6837.63858539493
 20
-27148.76688575436
 30
0.0
 11
-6837.63858539493
 21
-27148.76487159421
 31
0.0
  0
LINE
  5
E5
330
2
100
AcDbEntity
  8
Access .2
  6
ByBlock
100
AcDbLine
 10
-6839.752385443758
 20
-27144.7008457153
 30
0.0
 11
-6839.723515814852
 21
-27144.70041846921
 31
0.0
  0
LINE
  5
E6
330
2
100
AcDbEntity
  8
Access .2
  6
ByBlock
100
AcDbLine
 10
-6839.795995062899
 20
-27144.70304298093
 30
0.0
 11
-6839.723515814852
 21
-27144.70041846921
 31
0.0
  0
ARC
  5
E7
330
2
100
AcDbEntity
  8
Access .2
  6
ByBlock
100
AcDbCircle
 10
-6839.723088568757
 20
-27145.70047950437
 30
0.0
 40
1.000086426734924
100
AcDbArc
 50
94.27064648709409
 51
180.0461907455004
  0
LINE
  5
E8
330
2
100
AcDbEntity
  8
Access .1
  6
ByBlock
100
AcDbLine
 10
-6836.46555072696
 20
-27144.91538428952
 30
0.0
 11
-6836.47534686954
 21
-27144.91538428952
 31
0.0
  0
LINE
  5
E9
330
2
100
AcDbEntity
  8
Access .1
  6
ByBlock
100
AcDbLine
 10
-6836.47534686954
 20
-27144.91538428952
 30
0.0
 11
-6836.46555072696
 21
-27144.91538428952
 31
0.0
  0
LWPOLYLINE
  5
EA
330
2
100
AcDbEntity
  8
Access .1
  6
ByBlock
100
AcDbPolyline
 90
        8
 70
     0
 43
0.0
 10
-6818.375340766023
 20
-27145.91538428952
 10
-6818.390843695711
 20
-27145.61820411374
 10
-6818.423283881258
 20
-27145.4742832153
 10
-6818.515752142977
 20
-27145.27512550046
 10
-6818.746709174226
 20
-27145.04837989499
 10
-6818.894200629305
 20
-27144.97678565671
 10
-6819.218571967195
 20
-27144.91782569577
 10
-6819.375340766024
 20
-27144.91538428952
  0
LINE
  5
EB
330
2
100
AcDbEntity
  8
Access .1
  6
ByBlock
100
AcDbLine
 10
-6818.375340766023
 20
-27164.56540870359
 30
0.0
 11
-6818.375340766023
 21
-27145.91538428952
 31
0.0
  0
LWPOLYLINE
  5
EC
330
2
100
AcDbEntity
  8
Access .2
  6
ByBlock
100
AcDbPolyline
 90
       10
 70
     0
 43
0.0
 10
-6816.022374457429
 20
-27141.69828223874
 10
-6816.090825385164
 20
-27142.33591651609
 10
-6816.293309516024
 20
-27142.9444370239
 10
-6816.620641058992
 20
-27143.49595069577
 10
-6817.057713812899
 20
-27143.96543311765
 10
-6817.584508246492
 20
-27144.33127784421
 10
-6818.177037543367
 20
-27144.57676124265
 10
-6818.807286566805
 20
-27144.6905307739
 10
-6819.470952338289
 20
-27144.69858741452
 10
-6821.511449164461
 20
-27144.69919776608
  0
LWPOLYLINE
  5
ED
330
2
100
AcDbEntity
  8
Access .2
  6
ByBlock
100
AcDbPolyline
 90
        3
 70
     0
 43
0.0
 10
-6781.419621771883
 20
-27257.58823585202
 10
-6768.579900092195
 20
-27256.88608741452
 10
-6738.492162055085
 20
-27255.17514991452
  0
LINE
  5
EE
330
2
100
AcDbEntity
  8
Access .2
  6
ByBlock
100
AcDbLine
 10
-6738.499699896883
 20
-27255.17710303952
 30
0.0
 11
-6738.498174017976
 21
-27255.17698096921
 31
0.0
  0
LINE
  5
EF
330
2
100
AcDbEntity
  8
Access .2
  6
ByBlock
100
AcDbLine
 10
-6738.498174017976
 20
-27255.17698096921
 30
0.0
 11
-6738.492162055085
 21
-27255.17514991452
 31
0.0
  0
LINE
  5
F0
330
2
100
AcDbEntity
  8
Access .1
  6
ByBlock
100
AcDbLine
 10
-6776.84869892032
 20
-27137.69437598874
 30
0.0
 11
-6796.84869892032
 21
-27137.69437598874
 31
0.0
  0
ARC
  5
F1
330
2
100
AcDbEntity
  8
Access .1
  6
ByBlock
100
AcDbCircle
 10
-6776.84869892032
 20
-27132.69437598874
 30
0.0
 40
5.0
100
AcDbArc
 50
270.0000006832169
 51
0.0
  0
ARC
  5
F2
330
2
100
AcDbEntity
  8
Access .1
  6
ByBlock
100
AcDbCircle
 10
-6809.92535907657
 20
-27004.8233432739
 30
0.0
 40
25.5
100
AcDbArc
 50
256.1685638033507
 51
28.64789063012088
  0
ARC
  5
F3
330
2
100
AcDbEntity
  8
Access .1
  6
ByBlock
100
AcDbCircle
 10
-6809.92535907657
 20
-27004.8233432739
 30
0.0
 40
25.5
100
AcDbArc
 50
28.64789063012088
 51
161.7312580647724
  0
ARC
  5
F4
330
2
100
AcDbEntity
  8
Access .2
  6
ByBlock
100
AcDbCircle
 10
-6895.859196967196
 20
-27007.42380714109
 30
0.0
 40
55.00863647460938
100
AcDbArc
 50
12.23753634571326
 51
23.30269038071943
  0
LINE
  5
F5
330
2
100
AcDbEntity
  8
Access .2
  6
ByBlock
100
AcDbLine
 10
-6866.299321478914
 20
-26955.62626075437
 30
0.0
 11
-6866.791234320711
 21
-26955.11637305905
 31
0.0
  0
ARC
  5
F6
330
2
100
AcDbEntity
  8
Access .2
  6
ByBlock
100
AcDbCircle
 10
-6941.804570502352
 20
-27026.74680518796
 30
0.0
 40
103.7676391601562
100
AcDbArc
 50
41.56741324006684
 51
43.55966877780876
  0
ARC
  5
F7
330
2
100
AcDbEntity
  8
Access .2
  6
ByBlock
100
AcDbCircle
 10
-6972.171269721101
 20
-27057.66538428952
 30
0.0
 40
147.0522308349609
100
AcDbArc
 50
45.59501434398339
 51
50.18380266232108
  0
ARC
  5
F8
330
2
100
AcDbEntity
  8
Access .2
  6
ByBlock
100
AcDbCircle
 10
-6961.239873236727
 20
-27044.67222022702
 30
0.0
 40
130.0720825195312
100
AcDbArc
 50
50.21419996813753
 51
52.42224453785365
  0
LINE
  5
F9
330
2
100
AcDbEntity
  8
Access .2
  6
ByBlock
100
AcDbLine
 10
-6866.790959662508
 20
-26955.11661719968
 30
0.0
 11
-6866.62848407657
 21
-26955.2594394653
 31
0.0
  0
ARC
  5
FA
330
2
100
AcDbEntity
  8
Access .2
  6
ByBlock
100
AcDbCircle
 10
-6953.277928656648
 20
-27037.67771339109
 30
0.0
 40
119.6146850585937
100
AcDbArc
 50
43.56673920215103
 51
45.36157104476898
  0
LWPOLYLINE
  5
FB
330
2
100
AcDbEntity
  8
Access .2
  6
ByBlock
100
AcDbPolyline
 90
        6
 70
     0
 43
0.0
 10
-6847.558903998446
 20
-26981.00058936765
 10
-6849.014348334383
 20
-26978.33817481686
 10
-6850.880009955476
 20
-26975.21079444577
 10
-6852.875035590241
 20
-26972.13566016843
 10
-6854.991765326571
 20
-26969.11332130124
 10
-6855.355016058992
 20
-26968.6153354614
  0
LWPOLYLINE
  5
FC
330
2
100
AcDbEntity
  8
Access .2
  6
ByBlock
100
AcDbPolyline
 90
        6
 70
     0
 43
0.0
 10
-6847.595250433993
 20
-26980.94333839109
 10
-6848.466832465241
 20
-26979.33109473874
 10
-6849.372441596101
 20
-26977.74009132077
 10
-6851.275060004304
 20
-26974.61399268796
 10
-6853.28799945743
 20
-26971.55637550046
 10
-6855.40274555118
 20
-26968.56528663327
  0
ARC
  5
FD
330
2
100
AcDbEntity
  8
Access .2
  6
ByBlock
100
AcDbCircle
 10
-6908.512791937899
 20
-27012.93656348874
 30
0.0
 40
68.81294250488281
100
AcDbArc
 50
23.34661316500454
 51
27.65169428539706
  0
ARC
  5
FE
330
2
100
AcDbEntity
  8
Access .2
  6
ByBlock
100
AcDbCircle
 10
-6899.842931098054
 20
-27009.07456397702
 30
0.0
 40
59.32105255126953
100
AcDbArc
 50
23.24491292918432
 51
25.32188019242666
  0
ARC
  5
FF
330
2
100
AcDbEntity
  8
Access .2
  6
ByBlock
100
AcDbCircle
 10
-6910.195103949617
 20
-27013.87992286374
 30
0.0
 40
70.73577880859375
100
AcDbArc
 50
25.25335407934005
 51
27.75089060445412
  0
ARC
  5
100
330
2
100
AcDbEntity
  8
Access .2
  6
ByBlock
100
AcDbCircle
 10
-6956.630193060945
 20
-27043.03220557858
 30
0.0
 40
125.6765518188476
100
AcDbArc
 50
36.30839862198763
 51
38.80074032210892
  0
ARC
  5
101
330
2
100
AcDbEntity
  8
Access .2
  6
ByBlock
100
AcDbCircle
 10
-6952.462590521882
 20
-27039.55942725827
 30
0.0
 40
120.2538757324218
100
AcDbArc
 50
36.18350185328053
 51
38.75612457723768
  0
ARC
  5
102
330
2
100
AcDbEntity
  8
Access .2
  6
ByBlock
100
AcDbCircle
 10
-6957.909367865633
 20
-27043.9668979614
 30
0.0
 40
127.2607192993164
100
AcDbArc
 50
38.76841400501087
 51
42.32454074537884
  0
LINE
  5
103
330
2
100
AcDbEntity
  8
Access .2
  6
ByBlock
100
AcDbLine
 10
-6865.859624213289
 20
-26956.08634376218
 30
0.0
 11
-6866.299321478914
 21
-26955.62626075437
 31
0.0
  0
ARC
  5
104
330
2
100
AcDbEntity
  8
Access .2
  6
ByBlock
100
AcDbCircle
 10
-6963.415471381257
 20
-27048.91214942624
 30
0.0
 40
134.6617126464844
100
AcDbArc
 50
42.30277851356397
 51
43.57678323282155
  0
LINE
  5
105
330
2
100
AcDbEntity
  8
Access .1
  6
ByBlock
100
AcDbLine
 10
-6837.439000433993
 20
-27022.11936378171
 30
0.0
 11
-6837.439000433993
 21
-27005.82358741452
 31
0.0
  0
LINE
  5
106
330
2
100
AcDbEntity
  8
Access .1
  6
ByBlock
100
AcDbLine
 10
-6818.375340766023
 20
-27024.47336768796
 30
0.0
 11
-6818.375340766023
 21
-27005.8233432739
 31
0.0
  0
ARC
  5
107
330
2
100
AcDbEntity
  8
Access .2
  6
ByBlock
100
AcDbCircle
 10
-8425.633000678134
 20
-27009.21805762936
 30
0.0
 40
1584.921997070312
100
AcDbArc
 50
359.7618884597381
 51
359.9043174985932
  0
LINE
  5
108
330
2
100
AcDbEntity
  8
Access .2
  6
ByBlock
100
AcDbLine
 10
-6834.037541693757
 20
-27025.6881504028
 30
0.0
 11
-6821.511449164461
 21
-27025.6895542114
 31
0.0
  0
LINE
  5
109
330
2
100
AcDbEntity
  8
Access .1
  6
ByBlock
100
AcDbLine
 10
-6832.668034857821
 20
-27025.47336768796
 30
0.0
 11
-6819.375340766024
 21
-27025.47336768796
 31
0.0
  0
LINE
  5
10A
330
2
100
AcDbEntity
  8
Access .2
  6
ByBlock
100
AcDbLine
 10
-6834.037144965242
 20
-27025.6881504028
 30
0.0
 11
-6821.51178485782
 21
-27025.6895542114
 31
0.0
  0
LINE
  5
10B
330
2
100
AcDbEntity
  8
Access .2
  6
ByBlock
100
AcDbLine
 10
-6839.723515814852
 20
-27025.68833350827
 30
0.0
 11
-6834.037755316805
 21
-27025.6881504028
 31
0.0
  0
LINE
  5
10C
330
2
100
AcDbEntity
  8
Access .1
  6
ByBlock
100
AcDbLine
 10
-6836.46555072696
 20
-27025.47336768796
 30
0.0
 11
-6832.668034857821
 21
-27025.47336768796
 31
0.0
  0
LINE
  5
10D
330
2
100
AcDbEntity
  8
Access .2
  6
ByBlock
100
AcDbLine
 10
-6839.723515814852
 20
-27025.68833350827
 30
0.0
 11
-6834.037358588289
 21
-27025.6881504028
 31
0.0
  0
LINE
  5
10E
330
2
100
AcDbEntity
  8
Access .2
  6
ByBlock
100
AcDbLine
 10
-6839.752385443758
 20
-27025.68790626218
 30
0.0
 11
-6839.723515814852
 21
-27025.68833350827
 31
0.0
  0
LINE
  5
10F
330
2
100
AcDbEntity
  8
Access .2
  6
ByBlock
100
AcDbLine
 10
-6839.795995062899
 20
-27025.68570899655
 30
0.0
 11
-6839.723515814852
 21
-27025.68833350827
 31
0.0
  0
ARC
  5
110
330
2
100
AcDbEntity
  8
Access .2
  6
ByBlock
100
AcDbCircle
 10
-6839.723088568757
 20
-27024.68827247312
 30
0.0
 40
1.000075459480285
100
AcDbArc
 50
179.9526171572239
 51
265.72891930835
  0
ARC
  5
111
330
2
100
AcDbEntity
  8
Access .2
  6
ByBlock
100
AcDbCircle
 10
-5883.328557318757
 20
-27018.17118262936
 30
0.0
 40
957.3986206054687
100
AcDbArc
 50
179.8583332235039
 51
180.1744890201138
  0
ARC
  5
112
330
2
100
AcDbEntity
  8
Access .2
  6
ByBlock
100
AcDbCircle
 10
-7703.23004657657
 20
-27022.65140723874
 30
0.0
 40
862.5088500976563
100
AcDbArc
 50
359.8647463452596
 51
0.1039388967611403
  0
LINE
  5
113
330
2
100
AcDbEntity
  8
Access .2
  6
ByBlock
100
AcDbLine
 10
-6840.723393744539
 20
-27024.68772315671
 30
0.0
 11
-6840.722173041413
 21
-27023.7428379028
 31
0.0
  0
ARC
  5
114
330
2
100
AcDbEntity
  8
Access .2
  6
ByBlock
100
AcDbCircle
 10
-6839.723088568757
 20
-27024.68827247312
 30
0.0
 40
1.000086426734924
100
AcDbArc
 50
179.9538192696679
 51
265.729356492763
  0
LINE
  5
115
330
2
100
AcDbEntity
  8
Access .2
  6
ByBlock
100
AcDbLine
 10
-6840.722203558993
 20
-27023.7428379028
 30
0.0
 11
-6840.722142523836
 21
-27023.55246925046
 31
0.0
  0
LINE
  5
116
330
2
100
AcDbEntity
  8
Access .2
  6
ByBlock
100
AcDbLine
 10
-6840.72159320743
 20
-27023.55246925046
 30
0.0
 11
-6840.722356146883
 21
-27023.19858741452
 31
0.0
  0
ARC
  5
117
330
2
100
AcDbEntity
  8
Access .2
  6
ByBlock
100
AcDbCircle
 10
-5883.404362982819
 20
-27018.19523048093
 30
0.0
 40
957.32275390625
100
AcDbArc
 50
179.8569262139482
 51
180.1730546898412
  0
ARC
  5
118
330
2
100
AcDbEntity
  8
Access .2
  6
ByBlock
100
AcDbCircle
 10
-7373.180547064851
 20
-27022.44065284421
 30
0.0
 40
532.4594116210938
100
AcDbArc
 50
359.9184410037425
 51
0.1456802058117294
  0
LINE
  5
119
330
2
100
AcDbEntity
  8
Access .1
  6
ByBlock
100
AcDbLine
 10
-6837.439000433993
 20
-27024.47336768796
 30
0.0
 11
-6837.439000433993
 21
-27022.14023780515
 31
0.0
  0
LWPOLYLINE
  5
11A
330
2
100
AcDbEntity
  8
Access .1
  6
ByBlock
100
AcDbPolyline
 90
        7
 70
     0
 43
0.0
 10
-6837.439000433993
 20
-27024.47336768796
 10
-6837.417821234772
 20
-27024.80857276608
 10
-6837.342442816805
 20
-27025.04300880124
 10
-6837.204472846102
 20
-27025.23856544186
 10
-6837.010075873445
 20
-27025.3795566528
 10
-6836.785802191805
 20
-27025.45292091062
 10
-6836.46555072696
 20
-27025.47336768796
  0
LINE
  5
11B
330
2
100
AcDbEntity
  8
Access .2
  6
ByBlock
100
AcDbLine
 10
-6816.022404975008
 20
-27085.19437598874
 30
0.0
 11
-6816.022404975008
 21
-27028.6881504028
 31
0.0
  0
LWPOLYLINE
  5
11C
330
2
100
AcDbEntity
  8
Access .2
  6
ByBlock
100
AcDbPolyline
 90
       10
 70
     0
 43
0.0
 10
-6816.022374457429
 20
-27028.69046973874
 10
-6816.090825385164
 20
-27028.0528354614
 10
-6816.293309516024
 20
-27027.44431495359
 10
-6816.620641058992
 20
-27026.89280128171
 10
-6817.057713812899
 20
-27026.42331885984
 10
-6817.584508246492
 20
-27026.05747413327
 10
-6818.177037543367
 20
-27025.81199073483
 10
-6818.807286566805
 20
-27025.69822120358
 10
-6819.470952338289
 20
-27025.69016456296
 10
-6821.511449164461
 20
-27025.6895542114
  0
LWPOLYLINE
  5
11D
330
2
100
AcDbEntity
  8
Access .1
  6
ByBlock
100
AcDbPolyline
 90
        8
 70
     0
 43
0.0
 10
-6818.375340766023
 20
-27024.47336768796
 10
-6818.390843695711
 20
-27024.77054786374
 10
-6818.423283881258
 20
-27024.91446876218
 10
-6818.515752142977
 20
-27025.11362647702
 10
-6818.746709174226
 20
-27025.34037208249
 10
-6818.894200629305
 20
-27025.41196632077
 10
-6819.218571967195
 20
-27025.47092628171
 10
-6819.375340766024
 20
-27025.47336768796
  0
LINE
  5
11E
330
2
100
AcDbEntity
  8
Access .1
  6
ByBlock
100
AcDbLine
 10
-6821.801762885164
 20
-27004.8233432739
 30
0.0
 11
-6836.47534686954
 21
-27004.8233432739
 31
0.0
  0
LINE
  5
11F
330
2
100
AcDbEntity
  8
Access .1
  6
ByBlock
100
AcDbLine
 10
-6832.668034857821
 20
-27004.8233432739
 30
0.0
 11
-6819.375340766024
 21
-27004.8233432739
 31
0.0
  0
ARC
  5
120
330
2
100
AcDbEntity
  8
Access .1
  6
ByBlock
100
AcDbCircle
 10
-6809.92535907657
 20
-27004.8233432739
 30
0.0
 40
25.5
100
AcDbArc
 50
161.7816913684297
 51
163.6716862692829
  0
LINE
  5
121
330
2
100
AcDbEntity
  8
Access .1
  6
ByBlock
100
AcDbLine
 10
-6836.46555072696
 20
-27004.8233432739
 30
0.0
 11
-6832.668034857821
 21
-27004.8233432739
 31
0.0
  0
ARC
  5
122
330
2
100
AcDbEntity
  8
Access .2
  6
ByBlock
100
AcDbCircle
 10
-7078.707829779695
 20
-27011.4469394653
 30
0.0
 40
237.9954071044922
100
AcDbArc
 50
359.8993881193645
 51
0.5684186404418354
  0
LWPOLYLINE
  5
123
330
2
100
AcDbEntity
  8
Access .2
  6
ByBlock
100
AcDbPolyline
 90
        5
 70
     0
 43
0.0
 10
-6840.853307074617
 20
-27004.96421241452
 10
-6841.080418891023
 20
-27002.18638038327
 10
-6841.422368353914
 20
-26999.45969581296
 10
-6841.70581561954
 20
-26997.71366309811
 10
-6842.040837592195
 20
-26995.98911475827
  0
ARC
  5
124
330
2
100
AcDbEntity
  8
Access .2
  6
ByBlock
100
AcDbCircle
 10
-6926.63516742618
 20
-27009.68009376218
 30
0.0
 40
85.91203308105468
100
AcDbArc
 50
0.3963209831132425
 51
3.146691715340256
  0
LINE
  5
125
330
2
100
AcDbEntity
  8
Access .2
  6
ByBlock
100
AcDbLine
 10
-6842.040837592195
 20
-26995.98911475827
 30
0.0
 11
-6842.088963812898
 21
-26995.76328468014
 31
0.0
  0
ARC
  5
126
330
2
100
AcDbEntity
  8
Access .1
  6
ByBlock
100
AcDbCircle
 10
-6809.92535907657
 20
-27004.8233432739
 30
0.0
 40
25.5
100
AcDbArc
 50
163.722679519991
 51
179.9998547446714
  0
LINE
  5
127
330
2
100
AcDbEntity
  8
Access .1
  6
ByBlock
100
AcDbLine
 10
-6834.403203314852
 20
-26997.67606544186
 30
0.0
 11
-6834.396855658602
 21
-26997.65427589108
 31
0.0
  0
LWPOLYLINE
  5
128
330
2
100
AcDbEntity
  8
Access .1
  6
ByBlock
100
AcDbPolyline
 90
        8
 70
     0
 43
0.0
 10
-6837.439000433993
 20
-27005.82358741452
 10
-6837.428563422273
 20
-27005.48386573483
 10
-6837.402653998445
 20
-27005.32425880124
 10
-6837.31696063907
 20
-27005.1133823364
 10
-6837.106297797274
 20
-27004.92038917233
 10
-6836.961583441804
 20
-27004.86484718015
 10
-6836.636052435945
 20
-27004.82505225827
 10
-6836.470586127352
 20
-27004.82358741452
  0
LINE
  5
129
330
2
100
AcDbEntity
  8
Access .1
  6
ByBlock
100
AcDbLine
 10
-6836.46555072696
 20
-27004.8233432739
 30
0.0
 11
-6836.47534686954
 21
-27004.8233432739
 31
0.0
  0
LINE
  5
12A
330
2
100
AcDbEntity
  8
Access .1
  6
ByBlock
100
AcDbLine
 10
-6834.147008246493
 20
-26996.85087012936
 30
0.0
 11
-6834.14005023868
 21
-26996.8297519653
 31
0.0
  0
LWPOLYLINE
  5
12B
330
2
100
AcDbEntity
  8
Access .1
  6
ByBlock
100
AcDbPolyline
 90
        8
 70
     0
 43
0.0
 10
-6818.375340766023
 20
-27005.8233432739
 10
-6818.390843695711
 20
-27005.52622413327
 10
-6818.423283881258
 20
-27005.38230323483
 10
-6818.515752142977
 20
-27005.18314551999
 10
-6818.746709174226
 20
-27004.95639991452
 10
-6818.894200629305
 20
-27004.88480567624
 10
-6819.218571967195
 20
-27004.82578468015
 10
-6819.375340766024
 20
-27004.8233432739
  0
LINE
  5
12C
330
2
100
AcDbEntity
  8
Access .1
  6
ByBlock
100
AcDbLine
 10
-6776.84869892032
 20
-27032.69437598874
 30
0.0
 11
-6796.84869892032
 21
-27032.69437598874
 31
0.0
  0
LINE
  5
12D
330
2
100
AcDbEntity
  8
Access .1
  6
ByBlock
100
AcDbLine
 10
-6771.84869892032
 20
-27085.19437598874
 30
0.0
 11
-6771.84869892032
 21
-27037.69437598874
 31
0.0
  0
ARC
  5
12E
330
2
100
AcDbEntity
  8
Access .1
  6
ByBlock
100
AcDbCircle
 10
-6776.84869892032
 20
-27037.69437598874
 30
0.0
 40
5.0
100
AcDbArc
 50
0.0
 51
90.00000250446868
  0
ARC
  5
12F
330
2
100
AcDbEntity
  8
Access .2
  6
ByBlock
100
AcDbCircle
 10
-7207.749394721101
 20
-34823.21140479733
 30
0.0
 40
7921.891601562499
100
AcDbArc
 50
86.7416403501581
 51
86.91503825353532
  0
ARC
  5
130
330
2
100
AcDbEntity
  8
Access .2
  6
ByBlock
100
AcDbCircle
 10
-8203.873845404697
 20
-52115.22800635982
 30
0.0
 40
25242.57421875
100
AcDbArc
 50
86.67202011051102
 51
86.71524157595541
  0
ARC
  5
131
330
2
100
AcDbEntity
  8
Access .2
  6
ByBlock
100
AcDbCircle
 10
-8073.812077826572
 20
-50115.95261573483
 30
0.0
 40
23239.134765625
100
AcDbArc
 50
86.70598669113896
 51
86.75293058612153
  0
ARC
  5
132
330
2
100
AcDbEntity
  8
Access .2
  6
ByBlock
100
AcDbCircle
 10
-8098.451604193758
 20
-50494.62449073483
 30
0.0
 40
23618.59765625
100
AcDbArc
 50
86.69908130986057
 51
86.74521928226242
  0
LINE
  5
133
330
2
100
AcDbEntity
  8
Access .2
  6
ByBlock
100
AcDbLine
 10
-6738.499699896883
 20
-26915.21164893796
 30
0.0
 11
-6738.498174017976
 21
-26915.21177100827
 31
0.0
  0
LINE
  5
134
330
2
100
AcDbEntity
  8
Access .2
  6
ByBlock
100
AcDbLine
 10
-6738.498174017976
 20
-26915.21177100827
 30
0.0
 11
-6738.492162055085
 21
-26915.21360206296
 31
0.0
  0
LWPOLYLINE
  5
135
330
2
100
AcDbEntity
  8
Access .2
  6
ByBlock
100
AcDbPolyline
 90
        5
 70
     0
 43
0.0
 10
-6441.84869892032
 20
-27247.57779884031
 10
-6485.539159125399
 20
-27247.66599464108
 10
-6516.650517767977
 20
-27247.81504249265
 10
-6541.502751654696
 20
-27248.02750587155
 10
-6549.471013373445
 20
-27248.1182651489
  0
LWPOLYLINE
  5
136
330
2
100
AcDbEntity
  8
Access .2
  6
ByBlock
100
AcDbPolyline
 90
        5
 70
     0
 43
0.0
 10
-6441.84869892032
 20
-26922.81095313718
 10
-6485.539159125399
 20
-26922.7227573364
 10
-6516.650517767977
 20
-26922.57370948484
 10
-6541.502751654696
 20
-26922.36124610593
 10
-6549.471013373445
 20
-26922.27048682859
  0
ARC
  5
137
330
2
100
AcDbEntity
  8
Access .2
  6
ByBlock
100
AcDbCircle
 10
-6498.01309711368
 20
-31466.29587745358
 30
0.0
 40
4218.491210937499
100
AcDbArc
 50
90.69845085045811
 51
90.79393688941387
  0
ARC
  5
138
330
2
100
AcDbEntity
  8
Access .2
  6
ByBlock
100
AcDbCircle
 10
-6498.01309711368
 20
-22704.09275245358
 30
0.0
 40
4218.491210937499
100
AcDbArc
 50
269.2060631105861
 51
269.3015628089026
  0
LINE
  5
139
330
2
100
AcDbEntity
  8
Access .2
  6
ByBlock
100
AcDbLine
 10
-6441.84869892032
 20
-27241.0547885864
 30
0.0
 11
-6441.84869892032
 21
-27085.19437598874
 31
0.0
  0
ARC
  5
13A
330
2
100
AcDbEntity
  8
Access .2
  6
ByBlock
100
AcDbCircle
 10
-5384.811955756257
 20
-27240.48118018796
 30
0.0
 40
1057.037109375
100
AcDbArc
 50
180.0310860125432
 51
180.2876415711241
  0
LINE
  5
13B
330
2
100
AcDbEntity
  8
Access .2
  6
ByBlock
100
AcDbLine
 10
-6441.83600360782
 20
-27245.78769874265
 30
0.0
 11
-6441.791142767977
 21
-27239.0469760864
 31
0.0
  0
LINE
  5
13C
330
2
100
AcDbEntity
  8
Access .2
  6
ByBlock
100
AcDbLine
 10
-6441.84869892032
 20
-27247.51896094968
 30
0.0
 11
-6441.849126166414
 21
-27247.33060645749
 31
0.0
  0
LINE
  5
13D
330
2
100
AcDbEntity
  8
Access .2
  6
ByBlock
100
AcDbLine
 10
-6441.849126166414
 20
-27247.33060645749
 30
0.0
 11
-6441.851506537507
 21
-27246.25644874265
 31
0.0
  0
LINE
  5
13E
330
2
100
AcDbEntity
  8
Access .2
  6
ByBlock
100
AcDbLine
 10
-6441.84869892032
 20
-27247.51896094968
 30
0.0
 11
-6441.84869892032
 21
-27245.78727149655
 31
0.0
  0
LINE
  5
13F
330
2
100
AcDbEntity
  8
Access .2
  6
ByBlock
100
AcDbLine
 10
-6441.84869892032
 20
-27247.57779884031
 30
0.0
 11
-6441.852238959383
 21
-27245.78769874265
 31
0.0
  0
LINE
  5
140
330
2
100
AcDbEntity
  8
Access .2
  6
ByBlock
100
AcDbLine
 10
-6441.852238959383
 20
-27245.78769874265
 30
0.0
 11
-6441.83600360782
 21
-27245.78769874265
 31
0.0
  0
LINE
  5
141
330
2
100
AcDbEntity
  8
Access .2
  6
ByBlock
100
AcDbLine
 10
-6441.791142767977
 20
-27239.0469760864
 30
0.0
 11
-6441.771184271883
 21
-27236.26035499265
 31
0.0
  0
LINE
  5
142
330
2
100
AcDbEntity
  8
Access .2
  6
ByBlock
100
AcDbLine
 10
-6441.84869892032
 20
-27085.19437598874
 30
0.0
 11
-6441.84869892032
 21
-26929.33396339109
 31
0.0
  0
LINE
  5
143
330
2
100
AcDbEntity
  8
Access .2
  6
ByBlock
100
AcDbLine
 10
-6441.849126166414
 20
-26923.05814551999
 30
0.0
 11
-6441.84869892032
 21
-26922.8697910278
 31
0.0
  0
LINE
  5
144
330
2
100
AcDbEntity
  8
Access .2
  6
ByBlock
100
AcDbLine
 10
-6441.851506537507
 20
-26924.13230323484
 30
0.0
 11
-6441.849126166414
 21
-26923.05814551999
 31
0.0
  0
LINE
  5
145
330
2
100
AcDbEntity
  8
Access .2
  6
ByBlock
100
AcDbLine
 10
-6441.84869892032
 20
-26924.60148048093
 30
0.0
 11
-6441.84869892032
 21
-26922.8697910278
 31
0.0
  0
LINE
  5
146
330
2
100
AcDbEntity
  8
Access .2
  6
ByBlock
100
AcDbLine
 10
-6441.852238959383
 20
-26924.60105323483
 30
0.0
 11
-6441.84869892032
 21
-26922.81095313718
 31
0.0
  0
ARC
  5
147
330
2
100
AcDbEntity
  8
Access .2
  6
ByBlock
100
AcDbCircle
 10
-5384.811955756257
 20
-26929.90757178952
 30
0.0
 40
1057.037109375
100
AcDbArc
 50
179.7123584288758
 51
179.9689139874568
  0
LINE
  5
148
330
2
100
AcDbEntity
  8
Access .2
  6
ByBlock
100
AcDbLine
 10
-6441.852238959383
 20
-26924.60105323483
 30
0.0
 11
-6441.83600360782
 21
-26924.60105323483
 31
0.0
  0
LINE
  5
149
330
2
100
AcDbEntity
  8
Access .1
  6
HIDDEN
100
AcDbLine
 10
-6357.564932565819
 20
-26894.57168278971
 30
0.0
 11
-6370.848698920317
 21
-26894.57168278971
 31
0.0
  0
LINE
  5
14B
330
2
100
AcDbEntity
  8
Access .1
  6
HIDDEN
100
AcDbLine
 10
-6354.848698920317
 20
-26891.57168278971
 30
0.0
 11
-6376.848698920317
 21
-26891.57168278971
 31
0.0
  0
LINE
  5
14C
330
2
100
AcDbEntity
  8
Access .1
  6
HIDDEN
100
AcDbLine
 10
-6370.848698920319
 20
-27026.84311520159
 30
0.0
 11
-6312.848698920316
 21
-27026.84311520159
 31
0.0
  0
LINE
  5
14D
330
2
100
AcDbEntity
  8
Access .1
  6
HIDDEN
100
AcDbLine
 10
-6370.848698920319
 20
-27024.57168278971
 30
0.0
 11
-6312.848698920316
 21
-27024.57168278971
 31
0.0
  0
LINE
  5
14E
330
2
100
AcDbEntity
  8
Access .1
  6
HIDDEN
100
AcDbLine
 10
-6376.848698920317
 20
-26879.19437598874
 30
0.0
 11
-6306.848698920316
 21
-26879.19437598874
 31
0.0
  0
LINE
  5
14F
330
2
100
AcDbEntity
  8
Access .1
  6
HIDDEN
100
AcDbLine
 10
-6376.848698920317
 20
-26827.19437598874
 30
0.0
 11
-6306.848698920316
 21
-26827.19437598874
 31
0.0
  0
LINE
  5
150
330
2
100
AcDbEntity
  8
Access .1
  6
HIDDEN
100
AcDbLine
 10
-6376.848698920317
 20
-26852.19437598874
 30
0.0
 11
-6306.848698920316
 21
-26852.19437598874
 31
0.0
  0
LINE
  5
151
330
2
100
AcDbEntity
  8
Access .1
  6
HIDDEN
100
AcDbLine
 10
-6370.848698920317
 20
-26854.19437598874
 30
0.0
 11
-6312.848698920317
 21
-26854.19437598874
 31
0.0
  0
LINE
  5
152
330
2
100
AcDbEntity
  8
Access .1
  6
HIDDEN
100
AcDbLine
 10
-6357.564932565819
 20
-27275.81706918777
 30
0.0
 11
-6370.848698920317
 21
-27275.81706918777
 31
0.0
  0
LINE
  5
153
330
2
100
AcDbEntity
  8
Access .1
  6
HIDDEN
100
AcDbLine
 10
-6351.848698920317
 20
-27278.81706918777
 30
0.0
 11
-6376.848698920317
 21
-27278.81706918777
 31
0.0
  0
LINE
  5
154
330
2
100
AcDbEntity
  8
Access .1
  6
HIDDEN
100
AcDbLine
 10
-6376.848698920317
 20
-27318.19437598875
 30
0.0
 11
-6306.848698920316
 21
-27318.19437598875
 31
0.0
  0
LINE
  5
155
330
2
100
AcDbEntity
  8
Access .1
  6
HIDDEN
100
AcDbLine
 10
-6376.848698920317
 20
-27343.19437598875
 30
0.0
 11
-6306.848698920316
 21
-27343.19437598875
 31
0.0
  0
LINE
  5
156
330
2
100
AcDbEntity
  8
Access .1
  6
HIDDEN
100
AcDbLine
 10
-6376.848698920317
 20
-27291.19437598874
 30
0.0
 11
-6306.848698920316
 21
-27291.19437598874
 31
0.0
  0
LINE
  5
157
330
2
100
AcDbEntity
  8
Access .1
  6
HIDDEN
100
AcDbLine
 10
-6370.848698920317
 20
-27316.19437598874
 30
0.0
 11
-6312.848698920317
 21
-27316.19437598874
 31
0.0
  0
LINE
  5
158
330
2
100
AcDbEntity
  8
Access .1
  6
HIDDEN
100
AcDbLine
 10
-6370.848698920319
 20
-27143.54563677589
 30
0.0
 11
-6312.848698920316
 21
-27143.54563677589
 31
0.0
  0
LINE
  5
159
330
2
100
AcDbEntity
  8
Access .1
  6
HIDDEN
100
AcDbLine
 10
-6370.848698920319
 20
-27145.81706918777
 30
0.0
 11
-6312.848698920316
 21
-27145.81706918777
 31
0.0
  0
LINE
  5
15A
330
2
100
AcDbEntity
  8
Access .1
  6
ByBlock
100
AcDbLine
 10
-6471.848698920317
 20
-27159.97749672227
 30
0.0
 11
-6471.848698920317
 21
-27099.97749672226
 31
0.0
  0
LINE
  5
15B
330
2
100
AcDbEntity
  8
Access .1
  6
HIDDEN
100
AcDbLine
 10
-6376.848698920317
 20
-27085.19437598874
 30
0.0
 11
-6376.848698920317
 21
-27151.81706918777
 31
0.0
  0
LINE
  5
15C
330
2
100
AcDbEntity
  8
Access .2
  6
ByBlock
100
AcDbLine
 10
-6441.84869892032
 20
-27220.4344749418
 30
0.0
 11
-6441.84869892032
 21
-27085.19437598874
 31
0.0
  0
LINE
  5
15D
330
2
100
AcDbEntity
  8
Access .2
  6
ByBlock
100
AcDbLine
 10
-6441.848698920319
 20
-27085.19437598874
 30
0.0
 11
-6441.848698920319
 21
-27222.60290268658
 31
0.0
  0
LINE
  5
15E
330
2
100
AcDbEntity
  8
Access .2
  6
ByBlock
100
AcDbLine
 10
-6446.848698920317
 20
-27159.97749672227
 30
0.0
 11
-6446.848698920317
 21
-27099.97749672226
 31
0.0
  0
LINE
  5
15F
330
2
100
AcDbEntity
  8
Access .2
  6
ByBlock
100
AcDbLine
 10
-6446.848698920317
 20
-27247.69437598875
 30
0.0
 11
-6446.848698920317
 21
-26922.69437598874
 31
0.0
  0
LINE
  5
160
330
2
100
AcDbEntity
  8
Access .2
  6
ByBlock
100
AcDbLine
 10
-6441.848698920316
 20
-26922.69437598874
 30
0.0
 11
-6441.848698920316
 21
-27247.69437598875
 31
0.0
  0
LINE
  5
161
330
2
100
AcDbEntity
  8
Access .1
  6
HIDDEN
100
AcDbLine
 10
-6376.848698920318
 20
-27151.81706918777
 30
0.0
 11
-6376.848698920317
 21
-27269.81706918777
 31
0.0
  0
LINE
  5
162
330
2
100
AcDbEntity
  8
Access .1
  6
HIDDEN
100
AcDbLine
 10
-6376.848698920317
 20
-27318.19437598875
 30
0.0
 11
-6376.848698920317
 21
-27343.19437598875
 31
0.0
  0
LINE
  5
163
330
2
100
AcDbEntity
  8
Access .1
  6
HIDDEN
100
AcDbLine
 10
-6376.848698920317
 20
-27269.81706918777
 30
0.0
 11
-6376.848698920317
 21
-27310.19437598874
 31
0.0
  0
ARC
  5
164
330
2
100
AcDbEntity
  8
Access .1
  6
HIDDEN
100
AcDbCircle
 10
-6370.848698920317
 20
-27310.19437598874
 30
0.0
 40
6.0
100
AcDbArc
 50
180.0
 51
270.0
  0
ARC
  5
165
330
2
100
AcDbEntity
  8
Access .1
  6
HIDDEN
100
AcDbCircle
 10
-6370.848698920317
 20
-27269.81706918777
 30
0.0
 40
6.0
100
AcDbArc
 50
180.0
 51
270.0
  0
LINE
  5
166
330
2
100
AcDbEntity
  8
Access .1
  6
ByBlock
100
AcDbLine
 10
-6471.848698920317
 20
-27159.97749672227
 30
0.0
 11
-6446.848698920317
 21
-27159.97749672227
 31
0.0
  0
LINE
  5
167
330
2
100
AcDbEntity
  8
Access .2
  6
ByBlock
100
AcDbLine
 10
-6441.848698920316
 20
-27244.34938732602
 30
0.0
 11
-6441.848698920316
 21
-27206.22579681394
 31
0.0
  0
LINE
  5
168
330
2
100
AcDbEntity
  8
Access .2
  6
ByBlock
100
AcDbLine
 10
-6441.848698920316
 20
-27247.69437598875
 30
0.0
 11
-6446.848698920317
 21
-27247.69437598875
 31
0.0
  0
LINE
  5
169
330
2
100
AcDbEntity
  8
Access .2
  6
ByBlock
100
AcDbLine
 10
-6441.848729437895
 20
-27239.01124000242
 30
0.0
 11
-6441.848698920316
 21
-27239.01471900632
 31
0.0
  0
LINE
  5
16A
330
2
100
AcDbEntity
  8
Access .2
  6
ByBlock
100
AcDbLine
 10
-6441.848729437895
 20
-27231.21491431882
 30
0.0
 11
-6441.848698920316
 21
-27231.22388648679
 31
0.0
  0
LINE
  5
16B
330
2
100
AcDbEntity
  8
Access .2
  6
ByBlock
100
AcDbLine
 10
-6441.84897357852
 20
-27198.24024390867
 30
0.0
 11
-6441.848698920316
 21
-27198.26346778562
 31
0.0
  0
LINE
  5
16C
330
2
100
AcDbEntity
  8
Access .2
  6
ByBlock
100
AcDbLine
 10
-6441.848698920316
 20
-27206.22579681394
 30
0.0
 11
-6441.849001477689
 21
-27206.20340756833
 31
0.0
  0
LINE
  5
16D
330
2
100
AcDbEntity
  8
Access .2
  6
ByBlock
100
AcDbLine
 10
-6441.848698920316
 20
-27131.10096168211
 30
0.0
 11
-6441.848698920316
 21
-27148.31238746335
 31
0.0
  0
ARC
  5
16E
330
2
100
AcDbEntity
  8
Access .1
  6
HIDDEN
100
AcDbCircle
 10
-6370.848698920319
 20
-27151.81706918777
 30
0.0
 40
6.0
100
AcDbArc
 50
90.0
 51
180.0
  0
ARC
  5
16F
330
2
100
AcDbEntity
  8
Access .1
  6
HIDDEN
100
AcDbCircle
 10
-6370.848698920319
 20
-27137.54563677589
 30
0.0
 40
6.0
100
AcDbArc
 50
180.0
 51
270.0
  0
LINE
  5
170
330
2
100
AcDbEntity
  8
Access .2
  6
ByBlock
100
AcDbLine
 10
-6441.848698920316
 20
-26964.16295516355
 30
0.0
 11
-6441.848698920316
 21
-26926.03936465146
 31
0.0
  0
LINE
  5
171
330
2
100
AcDbEntity
  8
Access .1
  6
HIDDEN
100
AcDbLine
 10
-6376.848698920318
 20
-27018.57168278971
 30
0.0
 11
-6376.848698920317
 21
-26900.57168278972
 31
0.0
  0
LINE
  5
172
330
2
100
AcDbEntity
  8
Access .2
  6
ByBlock
100
AcDbLine
 10
-6441.84869892032
 20
-26949.95427703568
 30
0.0
 11
-6441.84869892032
 21
-27085.19437598874
 31
0.0
  0
LINE
  5
173
330
2
100
AcDbEntity
  8
Access .2
  6
ByBlock
100
AcDbLine
 10
-6441.848698920319
 20
-27085.19437598874
 30
0.0
 11
-6441.848698920319
 21
-26947.7858492909
 31
0.0
  0
LINE
  5
174
330
2
100
AcDbEntity
  8
Access .1
  6
ByBlock
100
AcDbLine
 10
-6471.848698920317
 20
-27010.41125525522
 30
0.0
 11
-6446.848698920317
 21
-27010.41125525522
 31
0.0
  0
LINE
  5
175
330
2
100
AcDbEntity
  8
Access .1
  6
ByBlock
100
AcDbLine
 10
-6446.848698920317
 20
-27070.41125525522
 30
0.0
 11
-6471.848698920317
 21
-27070.41125525522
 31
0.0
  0
LINE
  5
176
330
2
100
AcDbEntity
  8
Access .1
  6
ByBlock
100
AcDbLine
 10
-6446.848698920317
 20
-27099.97749672226
 30
0.0
 11
-6471.848698920317
 21
-27099.97749672226
 31
0.0
  0
LINE
  5
177
330
2
100
AcDbEntity
  8
Access .1
  6
ByBlock
100
AcDbLine
 10
-6471.848698920317
 20
-27070.41125525522
 30
0.0
 11
-6471.848698920317
 21
-27010.41125525522
 31
0.0
  0
LINE
  5
178
330
2
100
AcDbEntity
  8
Access .2
  6
ByBlock
100
AcDbLine
 10
-6441.848698920316
 20
-27022.07636451413
 30
0.0
 11
-6441.848698920316
 21
-27039.28779029538
 31
0.0
  0
LINE
  5
179
330
2
100
AcDbEntity
  8
Access .2
  6
ByBlock
100
AcDbLine
 10
-6446.848698920317
 20
-27010.41125525522
 30
0.0
 11
-6446.848698920317
 21
-27070.41125525522
 31
0.0
  0
LINE
  5
17A
330
2
100
AcDbEntity
  8
Access .1
  6
HIDDEN
100
AcDbLine
 10
-6376.848698920317
 20
-27085.19437598874
 30
0.0
 11
-6376.848698920317
 21
-27018.57168278971
 31
0.0
  0
LINE
  5
17B
330
2
100
AcDbEntity
  8
Access .2
  6
ByBlock
100
AcDbLine
 10
-6441.849001477689
 20
-26964.18534440915
 30
0.0
 11
-6441.848698920316
 21
-26964.16295516355
 31
0.0
  0
LINE
  5
17C
330
2
100
AcDbEntity
  8
Access .2
  6
ByBlock
100
AcDbLine
 10
-6441.848698920316
 20
-26972.12528419187
 30
0.0
 11
-6441.84897357852
 21
-26972.14817237546
 31
0.0
  0
ARC
  5
17D
330
2
100
AcDbEntity
  8
Access .1
  6
HIDDEN
100
AcDbCircle
 10
-6370.848698920319
 20
-27018.57168278971
 30
0.0
 40
6.0
100
AcDbArc
 50
180.0
 51
270.0
  0
ARC
  5
17E
330
2
100
AcDbEntity
  8
Access .1
  6
HIDDEN
100
AcDbCircle
 10
-6370.848698920319
 20
-27032.84311520159
 30
0.0
 40
6.0
100
AcDbArc
 50
90.0
 51
180.0
  0
LINE
  5
17F
330
2
100
AcDbEntity
  8
Access .1
  6
HIDDEN
100
AcDbLine
 10
-6376.848698920317
 20
-26900.57168278972
 30
0.0
 11
-6376.848698920317
 21
-26860.19437598874
 31
0.0
  0
LINE
  5
180
330
2
100
AcDbEntity
  8
Access .2
  6
ByBlock
100
AcDbLine
 10
-6441.848698920316
 20
-26931.37403297117
 30
0.0
 11
-6441.848729437895
 21
-26931.37751197507
 31
0.0
  0
LINE
  5
181
330
2
100
AcDbEntity
  8
Access .2
  6
ByBlock
100
AcDbLine
 10
-6441.848698920316
 20
-26939.1648654907
 30
0.0
 11
-6441.848729437895
 21
-26939.17383765866
 31
0.0
  0
LINE
  5
182
330
2
100
AcDbEntity
  8
Access .2
  6
ByBlock
100
AcDbLine
 10
-6446.848698920317
 20
-26922.69437598874
 30
0.0
 11
-6441.848698920316
 21
-26922.69437598874
 31
0.0
  0
ARC
  5
183
330
2
100
AcDbEntity
  8
Access .1
  6
HIDDEN
100
AcDbCircle
 10
-6370.848698920317
 20
-26900.57168278972
 30
0.0
 40
6.0
100
AcDbArc
 50
90.0
 51
180.0
  0
ARC
  5
184
330
2
100
AcDbEntity
  8
Access .1
  6
HIDDEN
100
AcDbCircle
 10
-6370.848698920317
 20
-26860.19437598874
 30
0.0
 40
6.0
100
AcDbArc
 50
90.0
 51
180.0
  0
LINE
  5
185
330
2
100
AcDbEntity
  8
Access .1
  6
HIDDEN
100
AcDbLine
 10
-6376.848698920317
 20
-26852.19437598874
 30
0.0
 11
-6376.848698920317
 21
-26827.19437598874
 31
0.0
  0
LINE
  5
186
330
2
100
AcDbEntity
  8
Access .1
  6
HIDDEN
100
AcDbLine
 10
-6306.848698920316
 20
-27085.19437598874
 30
0.0
 11
-6306.848698920316
 21
-27151.81706918777
 31
0.0
  0
LINE
  5
187
330
2
100
AcDbEntity
  8
Access .1
  6
HIDDEN
100
AcDbLine
 10
-6306.848698920316
 20
-27151.81706918777
 30
0.0
 11
-6306.848698920316
 21
-27269.81706918777
 31
0.0
  0
LINE
  5
188
330
2
100
AcDbEntity
  8
Access .1
  6
HIDDEN
100
AcDbLine
 10
-6306.848698920316
 20
-27343.19437598875
 30
0.0
 11
-6306.848698920316
 21
-27318.19437598875
 31
0.0
  0
LINE
  5
189
330
2
100
AcDbEntity
  8
Access .1
  6
HIDDEN
100
AcDbLine
 10
-6331.848698920317
 20
-27278.81706918777
 30
0.0
 11
-6306.848698920317
 21
-27278.81706918777
 31
0.0
  0
ARC
  5
18A
330
2
100
AcDbEntity
  8
Access .1
  6
HIDDEN
100
AcDbCircle
 10
-6341.848698920317
 20
-27278.81706918777
 30
0.0
 40
13.0
100
AcDbArc
 50
0.0
 51
180.0
  0
ARC
  5
18B
330
2
100
AcDbEntity
  8
Access .1
  6
HIDDEN
100
AcDbCircle
 10
-6341.848698920317
 20
-27278.81706918777
 30
0.0
 40
16.00000000000042
100
AcDbArc
 50
10.80692287486036
 51
169.1930771251396
  0
CIRCLE
  5
18C
330
2
100
AcDbEntity
  8
Access .1
  6
HIDDEN
100
AcDbCircle
 10
-6341.848698920317
 20
-27278.81706918777
 30
0.0
 40
10.0
  0
CIRCLE
  5
18D
330
2
100
AcDbEntity
  8
Access .1
  6
HIDDEN
100
AcDbCircle
 10
-6341.848698920317
 20
-27278.81706918777
 30
0.0
 40
8.0
  0
LINE
  5
18E
330
2
100
AcDbEntity
  8
Access .1
  6
HIDDEN
100
AcDbLine
 10
-6306.848698920317
 20
-27269.81706918777
 30
0.0
 11
-6306.848698920317
 21
-27310.19437598874
 31
0.0
  0
ARC
  5
18F
330
2
100
AcDbEntity
  8
Access .1
  6
HIDDEN
100
AcDbCircle
 10
-6312.848698920317
 20
-27310.19437598874
 30
0.0
 40
6.0
100
AcDbArc
 50
270.0
 51
0.0
  0
ARC
  5
190
330
2
100
AcDbEntity
  8
Access .1
  6
HIDDEN
100
AcDbCircle
 10
-6312.848698920316
 20
-27269.81706918777
 30
0.0
 40
6.0
100
AcDbArc
 50
270.0
 51
0.0
  0
LINE
  5
191
330
2
100
AcDbEntity
  8
Access .1
  6
HIDDEN
100
AcDbLine
 10
-6326.132465274816
 20
-27275.81706918777
 30
0.0
 11
-6312.848698920316
 21
-27275.81706918777
 31
0.0
  0
ARC
  5
192
330
2
100
AcDbEntity
  8
Access .1
  6
HIDDEN
100
AcDbCircle
 10
-6312.848698920316
 20
-27151.81706918777
 30
0.0
 40
6.0
100
AcDbArc
 50
0.0
 51
90.0
  0
ARC
  5
193
330
2
100
AcDbEntity
  8
Access .1
  6
HIDDEN
100
AcDbCircle
 10
-6312.848698920316
 20
-27137.54563677589
 30
0.0
 40
6.0
100
AcDbArc
 50
270.0
 51
0.0
  0
LINE
  5
194
330
2
100
AcDbEntity
  8
Access .1
  6
HIDDEN
100
AcDbLine
 10
-6306.848698920316
 20
-27018.57168278971
 30
0.0
 11
-6306.848698920316
 21
-26900.57168278972
 31
0.0
  0
LINE
  5
195
330
2
100
AcDbEntity
  8
Access .1
  6
HIDDEN
100
AcDbLine
 10
-6306.848698920316
 20
-27085.19437598874
 30
0.0
 11
-6306.848698920316
 21
-27018.57168278971
 31
0.0
  0
ARC
  5
196
330
2
100
AcDbEntity
  8
Access .1
  6
HIDDEN
100
AcDbCircle
 10
-6312.848698920316
 20
-27018.57168278971
 30
0.0
 40
6.0
100
AcDbArc
 50
270.0
 51
0.0
  0
ARC
  5
197
330
2
100
AcDbEntity
  8
Access .1
  6
HIDDEN
100
AcDbCircle
 10
-6312.848698920316
 20
-27032.84311520159
 30
0.0
 40
6.0
100
AcDbArc
 50
0.0
 51
90.0
  0
LINE
  5
198
330
2
100
AcDbEntity
  8
Access .1
  6
HIDDEN
100
AcDbLine
 10
-6306.848698920317
 20
-26900.57168278972
 30
0.0
 11
-6306.848698920317
 21
-26860.19437598874
 31
0.0
  0
ARC
  5
199
330
2
100
AcDbEntity
  8
Access .1
  6
HIDDEN
100
AcDbCircle
 10
-6341.848698920317
 20
-26891.57168278971
 30
0.0
 40
13.0
100
AcDbArc
 50
180.0
 51
0.0
  0
ARC
  5
19A
330
2
100
AcDbEntity
  8
Access .1
  6
HIDDEN
100
AcDbCircle
 10
-6341.848698920317
 20
-26891.57168278971
 30
0.0
 40
15.99999999999953
100
AcDbArc
 50
190.8069228748603
 51
349.1930771251397
  0
ARC
  5
19B
330
2
100
AcDbEntity
  8
Access .1
  6
HIDDEN
100
AcDbCircle
 10
-6312.848698920316
 20
-26900.57168278972
 30
0.0
 40
6.0
100
AcDbArc
 50
0.0
 51
90.0
  0
LINE
  5
19C
330
2
100
AcDbEntity
  8
Access .1
  6
HIDDEN
100
AcDbLine
 10
-6328.848698920317
 20
-26891.57168278971
 30
0.0
 11
-6306.848698920317
 21
-26891.57168278971
 31
0.0
  0
LINE
  5
19D
330
2
100
AcDbEntity
  8
Access .1
  6
HIDDEN
100
AcDbLine
 10
-6326.132465274816
 20
-26894.57168278971
 30
0.0
 11
-6312.848698920316
 21
-26894.57168278971
 31
0.0
  0
ARC
  5
19E
330
2
100
AcDbEntity
  8
Access .1
  6
HIDDEN
100
AcDbCircle
 10
-6312.848698920317
 20
-26860.19437598874
 30
0.0
 40
6.0
100
AcDbArc
 50
0.0
 51
90.0
  0
LINE
  5
19F
330
2
100
AcDbEntity
  8
Access .1
  6
HIDDEN
100
AcDbLine
 10
-6306.848698920316
 20
-26827.19437598874
 30
0.0
 11
-6306.848698920316
 21
-26852.19437598874
 31
0.0
  0
ENDSEC
  0
SECTION
  2
OBJECTS
  0
DICTIONARY
  5
9
330
0
100
AcDbDictionary
281
     1
  3
ACAD_COLOR
350
3B
  3
ACAD_GROUP
350
36
  3
ACAD_LAYOUT
350
F
  3
ACAD_MATERIAL
350
B
  3
ACAD_MLINESTYLE
350
37
  3
ACAD_PLOTSETTINGS
350
38
  3
ACAD_PLOTSTYLENAME
350
8
  3
ACAD_TABLESTYLE
350
3C
  3
ACAD_VISUALSTYLE
350
28
  3
AcDbVariableDictionary
350
1B9
  0
DICTIONARY
  5
29
330
25
100
AcDbDictionary
280
     1
281
     1
  0
DICTIONARY
  5
18
330
17
100
AcDbDictionary
280
     1
281
     1
  3
ACAD_LAYERFILTERS
360
19
  3
ACAD_LAYERSTATES
360
1A
  3
ACLYDICTIONARY
360
1B
  0
DICTIONARY
  5
3
330
2
100
AcDbDictionary
280
     1
281
     1
  3
ACAD_SORTENTS
360
1A0
  0
DICTIONARY
  5
3B
102
{ACAD_REACTORS
330
9
102
}
330
9
100
AcDbDictionary
281
     1
  0
DICTIONARY
  5
36
102
{ACAD_REACTORS
330
9
102
}
330
9
100
AcDbDictionary
281
     1
  0
DICTIONARY
  5
F
102
{ACAD_REACTORS
330
9
102
}
330
9
100
AcDbDictionary
281
     1
  3
Layout1
350
14
  3
Model
350
E
  0
DICTIONARY
  5
B
102
{ACAD_REACTORS
330
9
102
}
330
9
100
AcDbDictionary
281
     1
  3
ByBlock
350
3A
  3
ByLayer
350
39
  3
Global
350
A
  0
DICTIONARY
  5
37
102
{ACAD_REACTORS
330
9
102
}
330
9
100
AcDbDictionary
281
     1
  3
Standard
350
3F
  0
DICTIONARY
  5
38
102
{ACAD_REACTORS
330
9
102
}
330
9
100
AcDbDictionary
281
     1
  0
ACDBDICTIONARYWDFLT
  5
8
102
{ACAD_REACTORS
330
9
102
}
330
9
100
AcDbDictionary
281
     1
  3
Normal
350
7
100
AcDbDictionaryWithDefault
340
7
  0
DICTIONARY
  5
3C
102
{ACAD_REACTORS
330
9
102
}
330
9
100
AcDbDictionary
281
     1
  3
Standard
350
40
  0
DICTIONARY
  5
28
102
{ACAD_REACTORS
330
9
102
}
330
9
100
AcDbDictionary
281
     1
  3
2dWireframe
350
27
  3
3D Hidden
350
1C1
  3
3dWireframe
350
42
  3
Basic
350
1C0
  3
Brighten
350
1C4
  3
ColorChange
350
1C8
  3
Conceptual
350
1C2
  3
Dim
350
1C3
  3
Facepattern
350
1C7
  3
Flat
350
1BC
  3
FlatWithEdges
350
1BD
  3
Gouraud
350
1BE
  3
GouraudWithEdges
350
1BF
  3
Linepattern
350
1C6
  3
Realistic
350
41
  3
Thicken
350
1C5
  0
DICTIONARY
  5
1B9
102
{ACAD_REACTORS
330
9
102
}
330
9
100
AcDbDictionary
281
     1
  3
CTABLESTYLE
350
1BA
  0
DICTIONARY
  5
19
102
{ACAD_REACTORS
330
18
102
}
330
18
100
AcDbDictionary
281
     1
  0
DICTIONARY
  5
1A
102
{ACAD_REACTORS
330
18
102
}
330
18
100
AcDbDictionary
281
     1
  0
DICTIONARY
  5
1B
102
{ACAD_REACTORS
330
18
102
}
330
18
100
AcDbDictionary
281
     1
1001
ACAD
1000
<All
  0
SORTENTSTABLE
  5
1A0
102
{ACAD_REACTORS
330
3
102
}
330
3
100
AcDbSortentsTable
330
2
  0
LAYOUT
  5
14
102
{ACAD_XDICTIONARY
360
15
102
}
102
{ACAD_REACTORS
330
F
102
}
330
F
100
AcDbPlotSettings
  1

  2
none_device
  4
ISO_A4_(210.00_x_297.00_MM)
  6

 40
7.5
 41
20.0
 42
7.5
 43
20.0
 44
210.0
 45
297.0
 46
0.0
 47
0.0
 48
0.0
 49
0.0
140
0.0
141
0.0
142
1.0
143
1.0
 70
   688
 72
     1
 73
     1
 74
     5
  7
LCG Normal.ctb
 75
    16
147
1.0
 76
     0
 77
     2
 78
   300
148
0.0
149
0.0
100
AcDbLayout
  1
Layout1
 70
     1
 71
     1
 10
-20.0
 20
-7.5
 11
277.0
 21
202.5
 12
0.0
 22
0.0
 32
0.0
 14
25.69999999999999
 24
19.5
 34
0.0
 15
231.3
 25
175.5
 35
0.0
146
0.0
 13
0.0
 23
0.0
 33
0.0
 16
1.0
 26
0.0
 36
0.0
 17
0.0
 27
1.0
 37
0.0
 76
     0
330
11
1001
ACAD_PSEXT
1000
None
1000
None
1000
Not applicable
1000
The layout will not be plotted unless a new plotter configuration name is selected.
1070
     0
  0
LAYOUT
  5
E
102
{ACAD_REACTORS
330
F
102
}
330
F
100
AcDbPlotSettings
  1

  2
Adobe PDF
  4
A4
  6

 40
3.174999952316284
 41
3.174999952316284
 42
3.175003051757812
 43
3.17498779296875
 44
209.9733276367187
 45
297.0318298339844
 46
0.0
 47
69.27191069320233
 48
4459.497861080963
 49
1641.385426523477
140
6605.242672745349
141
4249.506158453842
142
1.0
143
12.49308833447353
 70
 11956
 72
     1
 73
     0
 74
     1
  7
LCG Normal.ctb
 75
     0
147
0.0800442591317146
 76
     0
 77
     2
 78
   300
148
8742.317240408535
149
28535.60495879019
100
AcDbLayout
  1
Model
 70
     1
 71
     0
 10
0.0
 20
0.0
 11
12.0
 21
9.0
 12
0.0
 22
0.0
 32
0.0
 14
0.0
 24
0.0
 34
0.0
 15
0.0
 25
0.0
 35
0.0
146
0.0
 13
0.0
 23
0.0
 33
0.0
 16
1.0
 26
0.0
 36
0.0
 17
0.0
 27
1.0
 37
0.0
 76
     0
330
2
331
26
1001
ACAD_PSEXT
1000
Adobe PDF
1000
Adobe PDF Converter
1000
Documents\*.pdf
1000

1070
     0
  0
MATERIAL
  5
3A
102
{ACAD_REACTORS
330
B
102
}
330
B
100
AcDbMaterial
  1
ByBlock
  0
MATERIAL
  5
39
102
{ACAD_REACTORS
330
B
102
}
330
B
100
AcDbMaterial
  1
ByLayer
  0
MATERIAL
  5
A
102
{ACAD_REACTORS
330
B
102
}
330
B
100
AcDbMaterial
  1
Global
  0
MLINESTYLE
  5
3F
102
{ACAD_REACTORS
330
37
102
}
330
37
100
AcDbMlineStyle
  2
STANDARD
 70
     0
  3

 62
   256
 51
90.0
 52
90.0
 71
     2
 49
0.5
 62
   256
  6
BYLAYER
 49
-0.5
 62
   256
  6
BYLAYER
  0
ACDBPLACEHOLDER
  5
7
102
{ACAD_REACTORS
330
8
102
}
330
8
  0
TABLESTYLE
  5
40
102
{ACAD_REACTORS
330
3C
102
}
330
3C
100
AcDbTableStyle
  3
Standard
 70
     0
 71
     0
 40
1.5
 41
1.5
280
     0
281
     0
  7
Standard
140
4.5
170
     2
 62
     0
 63
     7
283
     0
 90
        4
 91
        0
  1

274
    -2
284
     1
 64
     0
275
    -2
285
     1
 65
     0
276
    -2
286
     1
 66
     0
277
    -2
287
     1
 67
     0
278
    -2
288
     1
 68
     0
279
    -2
289
     1
 69
     0
  7
Standard
140
6.0
170
     5
 62
     0
 63
     7
283
     0
 90
        4
 91
        0
  1

274
    -2
284
     1
 64
     0
275
    -2
285
     1
 65
     0
276
    -2
286
     1
 66
     0
277
    -2
287
     1
 67
     0
278
    -2
288
     1
 68
     0
279
    -2
289
     1
 69
     0
  7
Standard
140
4.5
170
     5
 62
     0
 63
     7
283
     0
 90
        4
 91
        0
  1

274
    -2
284
     1
 64
     0
275
    -2
285
     1
 65
     0
276
    -2
286
     1
 66
     0
277
    -2
287
     1
 67
     0
278
    -2
288
     1
 68
     0
279
    -2
289
     1
 69
     0
  0
VISUALSTYLE
  5
27
102
{ACAD_REACTORS
330
28
102
}
330
28
100
AcDbVisualStyle
  2
2dWireframe
 70
     4
 71
     0
 72
     2
 73
     0
 90
        0
 40
-0.6
 41
-30.0
 62
     5
 63
     7
421
 16777215
 74
     1
 91
        4
 64
     7
 65
   257
 75
     1
175
     1
 42
1.0
 92
        0
 66
   257
 43
1.0
 76
     1
 77
     6
 78
     2
 67
     7
 79
     5
170
     0
171
     0
290
     0
174
     0
 93
        1
 44
0.0
173
     0
291
     0
 45
0.0
  0
VISUALSTYLE
  5
1C1
102
{ACAD_REACTORS
330
28
102
}
330
28
100
AcDbVisualStyle
  2
3D Hidden
 70
     6
 71
     1
 72
     2
 73
     2
 90
        0
 40
-0.6
 41
-30.0
 62
     5
 63
     7
421
 16777215
 74
     2
 91
        2
 64
     7
 65
   257
 75
     2
175
     1
 42
40.0
 92
        0
 66
   257
 43
1.0
 76
     1
 77
     6
 78
     2
 67
     7
 79
     3
170
     0
171
     0
290
     0
174
     0
 93
        1
 44
0.0
173
     0
291
     0
 45
0.0
  0
VISUALSTYLE
  5
42
102
{ACAD_REACTORS
330
28
102
}
330
28
100
AcDbVisualStyle
  2
3dWireframe
 70
     5
 71
     0
 72
     2
 73
     0
 90
        0
 40
-0.6
 41
-30.0
 62
     5
 63
     7
421
 16777215
 74
     1
 91
        4
 64
     7
 65
   257
 75
     1
175
     1
 42
1.0
 92
        0
 66
   257
 43
1.0
 76
     1
 77
     6
 78
     2
 67
     7
 79
     5
170
     0
171
     0
290
     0
174
     0
 93
        1
 44
0.0
173
     0
291
     0
 45
0.0
  0
VISUALSTYLE
  5
1C0
102
{ACAD_REACTORS
330
28
102
}
330
28
100
AcDbVisualStyle
  2
Basic
 70
     7
 71
     1
 72
     0
 73
     1
 90
        0
 40
-0.6
 41
-30.0
 62
     5
 63
     7
421
 16777215
 74
     0
 91
        4
 64
     7
 65
   257
 75
     1
175
     1
 42
1.0
 92
        8
 66
     7
 43
1.0
 76
     1
 77
     6
 78
     2
 67
     7
 79
     5
170
     0
171
     0
290
     0
174
     0
 93
        1
 44
0.0
173
     0
291
     1
 45
0.0
  0
VISUALSTYLE
  5
1C4
102
{ACAD_REACTORS
330
28
102
}
330
28
100
AcDbVisualStyle
  2
Brighten
 70
    12
 71
     2
 72
     2
 73
     0
 90
        0
 40
-0.6
 41
-30.0
 62
     5
 63
     7
421
 16777215
 74
     1
 91
        4
 64
     7
 65
   257
 75
     1
175
     1
 42
1.0
 92
        8
 66
     7
 43
1.0
 76
     1
 77
     6
 78
     2
 67
     7
 79
     5
170
     0
171
     0
290
     0
174
     0
 93
        1
 44
50.0
173
     0
291
     1
 45
0.0
  0
VISUALSTYLE
  5
1C8
102
{ACAD_REACTORS
330
28
102
}
330
28
100
AcDbVisualStyle
  2
ColorChange
 70
    16
 71
     2
 72
     2
 73
     3
 90
        0
 40
-0.6
 41
-30.0
 62
     5
 63
     8
421
  8421504
 74
     1
 91
        4
 64
     7
 65
   257
 75
     1
175
     1
 42
1.0
 92
        8
 66
     8
424
  8421504
 43
1.0
 76
     1
 77
     6
 78
     2
 67
     7
 79
     5
170
     0
171
     0
290
     0
174
     0
 93
        1
 44
0.0
173
     0
291
     1
 45
0.0
  0
VISUALSTYLE
  5
1C2
102
{ACAD_REACTORS
330
28
102
}
330
28
100
AcDbVisualStyle
  2
Conceptual
 70
     9
 71
     3
 72
     2
 73
     0
 90
        0
 40
-0.6
 41
-30.0
 62
     5
 63
     7
421
 16777215
 74
     2
 91
        2
 64
     7
 65
   257
 75
     1
175
     1
 42
40.0
 92
        8
 66
     7
 43
1.0
 76
     1
 77
     6
 78
     2
 67
     7
 79
     3
170
     0
171
     0
290
     0
174
     0
 93
        1
 44
0.0
173
     0
291
     0
 45
0.0
  0
VISUALSTYLE
  5
1C3
102
{ACAD_REACTORS
330
28
102
}
330
28
100
AcDbVisualStyle
  2
Dim
 70
    11
 71
     2
 72
     2
 73
     0
 90
        0
 40
-0.6
 41
-30.0
 62
     5
 63
     7
421
 16777215
 74
     1
 91
        4
 64
     7
 65
   257
 75
     1
175
     1
 42
1.0
 92
        8
 66
     7
 43
1.0
 76
     1
 77
     6
 78
     2
 67
     7
 79
     5
170
     0
171
     0
290
     0
174
     0
 93
        1
 44
-50.0
173
     0
291
     1
 45
0.0
  0
VISUALSTYLE
  5
1C7
102
{ACAD_REACTORS
330
28
102
}
330
28
100
AcDbVisualStyle
  2
Facepattern
 70
    15
 71
     2
 72
     2
 73
     0
 90
        0
 40
-0.6
 41
-30.0
 62
     5
 63
     7
421
 16777215
 74
     1
 91
        4
 64
     7
 65
   257
 75
     1
175
     1
 42
1.0
 92
        8
 66
     7
 43
1.0
 76
     1
 77
     6
 78
     2
 67
     7
 79
     5
170
     0
171
     0
290
     0
174
     0
 93
        1
 44
0.0
173
     0
291
     1
 45
0.0
  0
VISUALSTYLE
  5
1BC
102
{ACAD_REACTORS
330
28
102
}
330
28
100
AcDbVisualStyle
  2
Flat
 70
     0
 71
     2
 72
     1
 73
     1
 90
        2
 40
-0.6
 41
30.0
 62
     5
 63
     7
421
 16777215
 74
     0
 91
        4
 64
     7
 65
   257
 75
     1
175
     1
 42
1.0
 92
        8
 66
     7
 43
1.0
 76
     1
 77
     6
 78
     2
 67
     7
 79
     5
170
     0
171
     0
290
     0
174
     0
 93
       13
 44
0.0
173
     0
291
     1
 45
0.0
  0
VISUALSTYLE
  5
1BD
102
{ACAD_REACTORS
330
28
102
}
330
28
100
AcDbVisualStyle
  2
FlatWithEdges
 70
     1
 71
     2
 72
     1
 73
     1
 90
        2
 40
-0.6
 41
30.0
 62
     5
 63
     7
421
 16777215
 74
     1
 91
        4
 64
     7
 65
   257
 75
     1
175
     1
 42
1.0
 92
        0
 66
   257
 43
1.0
 76
     1
 77
     6
 78
     2
 67
     7
 79
     5
170
     0
171
     0
290
     0
174
     0
 93
       13
 44
0.0
173
     0
291
     1
 45
0.0
  0
VISUALSTYLE
  5
1BE
102
{ACAD_REACTORS
330
28
102
}
330
28
100
AcDbVisualStyle
  2
Gouraud
 70
     2
 71
     2
 72
     2
 73
     1
 90
        2
 40
-0.6
 41
30.0
 62
     5
 63
     7
421
 16777215
 74
     0
 91
        4
 64
     7
 65
   257
 75
     1
175
     1
 42
1.0
 92
        0
 66
     7
 43
1.0
 76
     1
 77
     6
 78
     2
 67
     7
 79
     5
170
     0
171
     0
290
     0
174
     0
 93
       13
 44
0.0
173
     0
291
     1
 45
0.0
  0
VISUALSTYLE
  5
1BF
102
{ACAD_REACTORS
330
28
102
}
330
28
100
AcDbVisualStyle
  2
GouraudWithEdges
 70
     3
 71
     2
 72
     2
 73
     1
 90
        2
 40
-0.6
 41
30.0
 62
     5
 63
     7
421
 16777215
 74
     1
 91
        4
 64
     7
 65
   257
 75
     1
175
     1
 42
1.0
 92
        0
 66
   257
 43
1.0
 76
     1
 77
     6
 78
     2
 67
     7
 79
     5
170
     0
171
     0
290
     0
174
     0
 93
       13
 44
0.0
173
     0
291
     1
 45
0.0
  0
VISUALSTYLE
  5
1C6
102
{ACAD_REACTORS
330
28
102
}
330
28
100
AcDbVisualStyle
  2
Linepattern
 70
    14
 71
     2
 72
     2
 73
     0
 90
        0
 40
-0.6
 41
-30.0
 62
     5
 63
     7
421
 16777215
 74
     1
 91
        4
 64
     7
 65
   257
 75
     7
175
     7
 42
1.0
 92
        8
 66
     7
 43
1.0
 76
     1
 77
     6
 78
     2
 67
     7
 79
     5
170
     0
171
     0
290
     0
174
     0
 93
        1
 44
0.0
173
     0
291
     1
 45
0.0
  0
VISUALSTYLE
  5
41
102
{ACAD_REACTORS
330
28
102
}
330
28
100
AcDbVisualStyle
  2
Realistic
 70
     8
 71
     2
 72
     2
 73
     0
 90
        0
 40
-0.6
 41
-30.0
 62
     5
 63
     7
421
 16777215
 74
     1
 91
        0
 64
     7
 65
   257
 75
     1
175
     1
 42
1.0
 92
        8
 66
     8
424
  7895160
 43
1.0
 76
     1
 77
     6
 78
     2
 67
     7
 79
     5
170
     0
171
     0
290
     0
174
     0
 93
       13
 44
0.0
173
     0
291
     0
 45
0.0
  0
VISUALSTYLE
  5
1C5
102
{ACAD_REACTORS
330
28
102
}
330
28
100
AcDbVisualStyle
  2
Thicken
 70
    13
 71
     2
 72
     2
 73
     0
 90
        0
 40
-0.6
 41
-30.0
 62
     5
 63
     7
421
 16777215
 74
     1
 91
        4
 64
     7
 65
   257
 75
     1
175
     1
 42
1.0
 92
       12
 66
     7
 43
1.0
 76
     1
 77
     6
 78
     2
 67
     7
 79
     5
170
     0
171
     0
290
     0
174
     0
 93
        1
 44
0.0
173
     0
291
     1
 45
0.0
  0
DICTIONARYVAR
  5
1BA
102
{ACAD_REACTORS
330
1B9
102
}
330
1B9
100
DictionaryVariables
280
     0
  1
STANDARD
  0
DICTIONARY
  5
15
330
14
100
AcDbDictionary
280
     1
281
     1
  3
ADSK_XREC_LAYOUTTHUMBNAIL
360
16
  0
XRECORD
  5
16
102
{ACAD_REACTORS
330
15
102
}
330
15
100
AcDbXrecord
280
     1
310
28000000B40000007F00000001000800000000004C590000000000000000000000010000000000000000000000000000FFFFFF000000000000000000000000000000000000000000000000000000000000000000330000006600000099000000CC000000FF00000000330000333300006633000099330000CC330000FF3300
310
0000660000336600006666000099660000CC660000FF66000000990000339900006699000099990000CC990000FF99000000CC000033CC000066CC000099CC0000CCCC0000FFCC000000FF000033FF000066FF000099FF0000CCFF0000FFFF000000003300330033006600330099003300CC003300FF003300003333003333
310
33006633330099333300CC333300FF33330000663300336633006666330099663300CC663300FF66330000993300339933006699330099993300CC993300FF99330000CC330033CC330066CC330099CC3300CCCC3300FFCC330000FF330033FF330066FF330099FF3300CCFF3300FFFF330000006600330066006600660099
310
006600CC006600FF00660000336600333366006633660099336600CC336600FF33660000666600336666006666660099666600CC666600FF66660000996600339966006699660099996600CC996600FF99660000CC660033CC660066CC660099CC6600CCCC6600FFCC660000FF660033FF660066FF660099FF6600CCFF6600
310
FFFF660000009900330099006600990099009900CC009900FF00990000339900333399006633990099339900CC339900FF33990000669900336699006666990099669900CC669900FF66990000999900339999006699990099999900CC999900FF99990000CC990033CC990066CC990099CC9900CCCC9900FFCC990000FF99
310
0033FF990066FF990099FF9900CCFF9900FFFF99000000CC003300CC006600CC009900CC00CC00CC00FF00CC000033CC003333CC006633CC009933CC00CC33CC00FF33CC000066CC003366CC006666CC009966CC00CC66CC00FF66CC000099CC003399CC006699CC009999CC00CC99CC00FF99CC0000CCCC0033CCCC0066CC
310
CC0099CCCC00CCCCCC00FFCCCC0000FFCC0033FFCC0066FFCC0099FFCC00CCFFCC00FFFFCC000000FF003300FF006600FF009900FF00CC00FF00FF00FF000033FF003333FF006633FF009933FF00CC33FF00FF33FF000066FF003366FF006666FF009966FF00CC66FF00FF66FF000099FF003399FF006699FF009999FF00CC
310
99FF00FF99FF0000CCFF0033CCFF0066CCFF0099CCFF00CCCCFF00FFCCFF0000FFFF0033FFFF0066FFFF0099FFFF00CCFFFF00FFFFFF00000000000D0D0D001A1A1A00282828003535350043434300505050005D5D5D006B6B6B00787878008686860093939300A1A1A100AEAEAE00BBBBBB00C9C9C900D6D6D600E4E4E400
310
F1F1F100FFFFFF0000000000000000000000000000000000000000000000000000000000000000000000000000000000F5F5F5F5F5F5F5F5F5F5F5F5F5F5F5F5F5F5F5F5F5F5F5F5F5F5F5F5F5F5F5F5F5F5F5F5F5F5F5F5F5F5F5F5F5F5F5F5F5F5F5F5F5F5F5F5F5F5F5F5F5F5F5F5F5F5F5F5F5F5F5F5F5F5F5F5F5F5F5
310
F5F5F5F5F5F5F5F5F5F5F5F5F5F5F5F5F5F5F5F5F5F5F5F5F5F5F5F5F5F5F5F5F5F5F5F5F5F5F5F5F5F5F5F5F5F5F5F5F5F5F5F5F5F5F5F5F5F5F5F5F5F5F5F5F5F5F5F5F5F5F5F5F5F5F5F5F5F5F5F5F5F5F5F5F5F5F5F5F5F5F5F5F5F5F5F5F5F5F5F5F5F5E2E2E2E2E2E2E2E2E2E2E2E2E2E2E2E2E2E2E2E2E2E2E2E2E2
310
E2E2E2E2E2E2E2E2E2E2E2E2E2E2E2E2E2E2E2E2E2E2E2E2E2E2E2E2E2E2E2E2E2E2E2E2E2E2E2E2E2E2E2E2E2E2E2E2E2E2E2E2E2E2E2E2E2E2E2E2E2E2E2E2E2E2E2E2E2E2E2E2E2E2E2E2E2E2E2E2E2E2E2E2E2E2E2E2E2E2E2E2E2E2E2E2E2E2E2E2E2E2E2E2E2E2E2E2E2E2E2E2E2E2E2E2E2E2E2E2E2E2E2E2E2E2E2
310
E2E2E2E2E2E2E2E2E2E2E2E2E2E2E2E2E2E2E2E2E2E2E2E2E2E2F5F5E2E2E2E2E2E2E2E2E2E2E2E2E2E2E2E2E2E2E2E2E2E2E2E2E2E2E2E2E2E2E2E2E2E2E2E2E2E2E2E2E2E2E2E2E2E2E2E2E2E2E2E2E2E2E2E2E2E2E2E2E2E2E2E2E2E2E2E2E2E2E2E2E2E2E2E2E2E2E2E2E2E2E2E2E2E2E2E2E2E2E2E2E2E2E2E2E2E2E2
310
E2E2E2E2E2E2E2E2E2E2E2E2E2E2E2E2E2E2E2E2E2E2E2E2E2E2E2E2E2E2E2E2E2E2E2E2E2E2E2E2E2E2E2E2E2E2E2E2E2E2E2E2E2E2E2E2E2E2E2E2E2E2E2E2E2E2E2E2E2E2E2E2E2E2E2E2E2E2E2F5F5E2E2E2E2E2E2E2E2E2E2E2E2E2E2E2E2E2E2E2E2E2E2E2E2E2E2E2E2E2E2E2E2E2E2E2E2E2E2E2E2E2E2E2E2E2E2
310
E2E2E2E2E2E2E2E2E2E2E2E2E2E2E2E2E2E2E2E2E2E2E2E2E2E2E2E2E2E2E2E2E2E2E2E2E2E2E2E2E2E2E2E2E2E2E2E2E2E2E2E2E2E2E2E2E2E2E2E2E2E2E2E2E2E2E2E2E2E2E2E2E2E2E2E2E2E2E2E2E2E2E2E2E2E2E2E2E2E2E2E2E2E2E2E2E2E2E2E2E2E2E2E2E2E2E2E2E2E2E2E2E2E2E2E2E2E2E2E2E2E2E2E2E2E2E2
310
E2E2E2E2E2F5F5E2E2E2E2E2E2E2E2E2E2E2F5F5F5F5F5F5F5F5F5E2E2E2E2E2E2E2E2E2F5F5F5F5F5F5F5F5F5F5F5F5F5F5F5F5F5E2E2E2E2E2E2E2E2E2F5F5F5F5F5F5F5F5F5F5F5F5F5F5F5F5E2E2E2E2E2E2E2E2E2E2F5F5F5F5F5F5F5F5F5F5F5F5F5F5F5F5E2E2E2E2E2E2E2E2E2E2F5F5F5F5F5F5F5F5F5F5F5F5F5
310
F5F5F5E2E2E2E2E2E2E2E2E2F5F5F5F5F5F5F5F5F5F5F5F5F5F5F5F5F5E2E2E2E2E2E2E2E2E2F5F5F5F5F5F5F5F5F5E2E2E2E2E2E2E2E2E2E2E2F5F5E2E2E2E2E2E2E2E2E2E2E2F5E2E2E2E2E2E2E2E2E2E2E2E2E2E2E2E2E2E2E2E2E2E2E2E2E2E2E2E2E2E2E2E2E2E2E2E2E2E2E2E2E2E2E2E2E2E2E2E2E2E2E2E2E2E2E2
310
E2E2E2E2E2E2E2E2E2E2E2E2E2E2E2E2E2E2E2E2E2E2E2E2E2E2E2E2E2E2E2E2E2E2E2E2E2E2E2E2E2E2E2E2E2E2E2E2E2E2E2E2E2E2E2E2E2E2E2E2E2E2E2E2E2E2E2E2E2E2E2E2E2E2E2E2E2E2E2E2E2E2E2E2E2E2E2E2E2E2E2E2E2E2E2E2E2E2E2F5E2E2E2E2E2E2E2E2E2E2E2F5F5E2E2E2E2E2E2E2E2E2E2E2F5E2E2
310
E2E2E2E2E2E2E2E2E2E2E2E2E2E2E2E2E2E2E2E2E2E2E2E2E2E2E2E2E2E2E2E2E2E2E2E2E2E2E2E2E2E2E2E2E2E2E2E2E2E2E2E2E2E2E2E2E2E2E2E2E2E2E2E2E2E2E2E2E2E2E2E2E2E2E2E2E2E2E2E2E2E2E2E2E2E2E2E2E2E2E2E2E2E2E2E2E2E2E2E2E2E2E2E2E2E2E2E2E2E2E2E2E2E2E2E2E2E2E2E2E2E2E2E2E2E2E2
310
E2E2E2E2E2E2E2E2E2E2E2E2E2E2E2E2E2E2E2E2E2E2E2E2E2F5E2E2E2E2E2E2E2E2E2E2E2F5F5E2E2E2E2E2E2E2E2E2E2E2F5E2E2E2E2E2E2E2E2E2E2E2E2E2E2E2E2E2E2E2E2E2E2E2E2E2E2E2E2E2E2E2E2E2E2E2E2E2E2E2E2E2E2E2E2E2E2E2E2E2E2E2E2E2E2E2E2E2E2E2E2E2E2E2E2E2E2E2E2E2E2E2E2E2E2E2E2
310
E2E2E2E2E2E2E2E2E2E2E2E2E2E2E2E2E2E2E2E2E2E2E2E2E2E2E2E2E2E2E2E2E2E2E2E2E2E2E2E2E2E2E2E2E2E2E2E2E2E2E2E2E2E2E2E2E2E2E2E2E2E2E2E2E2E2E2E2E2E2E2E2E2E2E2E2E2E2F5E2E2E2E2E2E2E2E2E2E2E2F5F5E2E2E2E2E2E2E2E2E2E2E2F5E2E2E2E2E2E2E2E2E2E2E2E2E2E2E2E2E2E2E2E2E2E2E2
310
E2E2E2E2E2E2E2E2E2E2E2E2E2E2E2E2E2E2E2E2E2E2E2E2E2E2E2E2E2E2E2E2E2E2E2E2E2E2E2E2E2E2E2E2E2E2E2E2E2E2E2E2E2E2E2E2E2E2E2E2E2E2E2E2E2E2E2E2E2E2E2E2E2E2E2E2E2E2E2E2E2E2E2E2E2E2E2E2E2E2E2E2E2E2E2E2E2E2E2E2E2E2E2E2E2E2E2E2E2E2E2E2E2E2E2E2E2E2E2E2E2E2E2E2E2E2E2
310
E2E2E2E2F5E2E2E2E2E2E2E2E2E2E2E2F5F5E2E2E2E2E2E2E2E2E2E2E2F5E2E2E2E2E2E2E2E2E2E2E2E2E2E2E2E2E2E2E2E2E2E2E2E2E2E2E2E2E2E2E2E2E2E2E2E2E2E2E2E2E2E2E2E2E2E2E2E2E2E2E2E2E2E2E2E2E2E2E2E2E2E2E2E2E2E2E2E2E2E2E2E2E2E2E2E2E2E2E2E2E2E2E2E2E2E2E2E2E2E2E2E2E2E2E2E2E2
310
E2E2E2E2E2E2E2E2E2E2E2E2E2E2E2E2E2E2E2E2E2E2E2E2E2E2E2E2E2E2E2E2E2E2E2E2E2E2E2E2E2E2E2E2E2E2E2E2E2E2E2E2E2E2E2E2E2F5E2E2E2E2E2E2E2E2E2E2E2F5F5E2E2E2E2E2E2E2E2E2E2E2F5E2E2E2E2E2E2E2E2E2E2E2E2E2E2E2E2E2E2E2E2E2E2E2E2E2E2E2E2E2E2E2E2E2E2E2E2E2E2E2E2E2E2E2E2
310
E2E2E2E2E2E2E2E2E2E2E2E2E2E2E2E2E2E2E2E2E2E2E2E2E2E2E2E2E2E2E2E2E2E2E2E2E2E2E2E2E2E2E2E2E2E2E2E2E2E2E2E2E2E2E2E2E2E2E2E2E2E2E2E2E2E2E2E2E2E2E2E2E2E2E2E2E2E2E2E2E2E2E2E2E2E2E2E2E2E2E2E2E2E2E2E2E2E2E2E2E2E2E2E2E2E2E2E2E2E2F5E2E2E2E2E2E2E2E2E2E2E2F5F5E2E2E2
310
E2E2E2E2E2E2E2E2F5E2E2E2E2E2E2E2E2E2E2E2E2E2E2E2E2E2E2E2E2E2E2E2E2E2E2E2E2E2E2E2E2E2E2E2E2E2E2E2E2E2E2E2E2E2E2E2E2E2E2E2E2E2E2E2E2E2E2E2E2E2E2E2E2E2E2E2E2E2E2E2E2E2E2E2E2E2E2E2E2E2E2E2E2E2E2E2E2E2E2E2E2E2E2E2E2E2E2E2E2E2E2E2E2E2E2E2E2E2E2E2E2E2E2E2E2E2E2
310
E2E2E2E2E2E2E2E2E2E2E2E2E2E2E2E2E2E2E2E2E2E2E2E2E2E2E2E2E2E2E2E2E2E2E2E2F5E2E2E2E2E2E2E2E2E2E2E2F5F5E2E2E2E2E2E2E2E2E2E2E2E2E2E2E2E2E2E2E2E2E2E2E2E2E2E2E2E2E2E2E2E2E2E2E2E2E2E2E2E2E2E2E2E2E2E2E2E2E2E2E2E2E2E2E2E2E2E2E2E2E2E2E2E2E2E2E2E2E2E2E2E2E2E2E2E2E2
310
E2E2E2E2E2E2E2E2E2E2E2E2E2E2E2E2E2E2E2E2E2E2E2E2E2E2E2E2E2E2E2E2E2E2E2E2E2E2E2E2E2E2E2E2E2E2E2E2E2E2E2E2E2E2E2E2E2E2E2E2E2E2E2E2E2E2E2E2E2E2E2E2E2E2E2E2E2E2E2E2E2E2E2E2E2E2E2E2E2E2E2E2E2E2E2E2E2E2E2E2E2F5F5E2E2E2E2E2E2E2E2E2E2E2E2E2E2E2E2E2E2E2E2E2E2E2E2
310
E2E2E2E2E2E2E2E2E2E2E2E2E2E2E2E2E2E2E2E2E2E2E2E2E2E2E2E2E2E2E2E2E2E2E2E2E2E2E2E2E2E2E2E2E2E2E2E2E2E2E2E2E2E2E2E2E2E2E2E2E2E2E2E2E2E2E2E2E2E2E2E2E2E2E2E2E2E2E2E2E2E2E2E2E2E2E2E2E2E2E2E2E2E2E2E2E2E2E2E2E2E2E2E2E2E2E2E2E2E2E2E2E2E2E2E2E2E2E2E2E2E2E2E2E2E2E2
310
E2E2E2E2E2E2E2E2E2E2E2E2E2E2E2E2E2E2E2E2E2E2E2E2E2E2E2F5F5E2E2E2E2E2E2E2E2E2E2E2E2E2E2E2E2E2E2E2E2E2E2E2E2E2E2E2E2E2E2E2E2E2E2E2E2E2E2E2E2E2E2E2E2E2E2E2E2E2E2E2E2E2E2E2E2E2E2E2E2E2E2E2E2E2E2E2E2E2E2E2E2E2E2E2E2E2E2E2E2E2E2E2E2E2E2E2E2E2E2E2E2E2E2E2E2E2E2
310
E2E2E2E2E2E2E2E2E2E2E2E2E2E2E2E2E2E2E2E2E2E2E2E2E2E2E2E2E2E2E2E2E2E2E2E2E2E2E2E2E2E2E2E2E2E2E2E2E2E2E2E2E2E2E2E2E2E2E2E2E2E2E2E2E2E2E2E2E2E2E2E2E2E2E2E2E2E2E2E2F5F5E2E2E2E2E2E2E2E2E2E2E2E2E2E2E2E2E2E2E2E2E2E2E2E2E2E2E2E2E2E2E2E2E2E2E2E2E2E2E2E2E2E2E2E2E2
310
E2E2E2E2E2E2E2E2E2E2E2E2E2E2E2E2E2E2E2E2E2E2E2E2E2E2E2E2E2E2E2E2E2E2E2E2E2E2E2E2E2E2E2E2E2E2E2E2E2E2E2E2E2E2E2E2E2E2E2E2E2E2E2E2E2E2E2E2E2E2E2E2E2E2E2E2E2E2E2E2E2E2E2E2E2E2E2E2E2E2E2E2E2E2E2E2E2E2E2E2E2E2E2E2E2E2E2E2E2E2E2E2E2E2E2E2E2E2E2E2E2E2E2E2E2E2E2
310
E2E2E2E2E2E2F5F5E2E2E2E2E2E2E2E2E2E2E2E2E2E2E2E2E2E2E2E2E2E2E2E2E2E2E2F5F5F5F5F5F5F5F5F5F5F5F5F5F5F5F5F5F5F5F5F5F5F5F5F5F5F5F5F5F5F5F5F5F5F5F5F5F5F5F5F5F5F5F5F5F5F5F5F5F5F5F5F5F5F5F5F5F5F5F5F5F5F5F5F5F5F5F5F5F5F5F5F5F5F5F5F5F5F5F5F5F5F5F5F5F5F5F5F5F5F5F5
310
F5F5F5F5F5F5F5F5F5F5F5F5F5F5F5F5F5F5F5F5F5F5F5F5F5F5F5F5F5F5F5F5E2E2E2E2E2E2E2E2E2E2E2E2E2E2E2E2E2E2E2E2E2E2E2E2E2E2E2F5F5E2E2E2E2E2E2E2E2E2E2E2E2E2E2E2E2E2E2E2E2E2E2E2E2E2E2E2F5E2E2E2E2E2E2E2E2E2E2E2E2E2E2E2E2E2E2E2E2E2E2E2E2E2E2E2E2E2E2E2E2E2E2E2E2E2E2
310
E2E2E2E2E2E2E2E2E2E2E2E2E2E2E2E2E2E2E2E2E2E2E2E2E2E2E2E2E2E2E2E2E2E2E2E2E2E2E2E2E2E2E2E2E2E2E2E2E2E2E2E2E2E2E2E2E2E2E2E2E2E2E2E2E2E2E2E2E2E2E2E2E2E2E2E2E2E2E2E2E2E2E2E2F5E2E2E2E2E2E2E2E2E2E2E2E2E2E2E2E2E2E2E2E2E2E2E2E2E2E2E2F5F5E2E2E2E2E2E2E2E2E2E2E2E2E2
310
E2E2E2E2E2E2E2E2E2E2E2E2E2E2F5E2E2E2E2E2E2E2E2E2E2E2E2E2E2E2E2E2E2E2E2E2E2E2E2E2E2E2E2E2E2E2E2E2E2E2E2E2E2E2E2E2E2E2E2E2E2E2E2E2E2E2E2E2E2E2E2E2E2E2E2E2E2E2E2E2E2E2E2E2E2E2E2E2E2E2E2E2E2E2E2E2E2E2E2E2E2E2E2E2E2E2E2E2E2E2E2E2E2E2E2E2E2E2E2E2E2E2E2E2E2E2E2
310
E2E2E2E2E2E2E2E2E2E2F5E2E2E2E2E2E2E2E2E2E2E2E2E2E2E2E2E2E2E2E2E2E2E2E2E2E2E2F5F5E2E2E2E2E2E2E2E2E2E2E2E2E2E2E2E2E2E2E2E2E2E2E2E2E2E2E2F5E2E2E2E2E2E2E2E2E2E2E2E2E2E2E2E2E2E2E2E2E2E2E2E2E2E2E2E2E2E2E2E2E2E2E2E2E2E2E2E2E2E2E2E2E2E2E2E2E2E2E2E2E2E2E2E2E2E2E2
310
E2E2E2E2E2E2E2E2E2E2E2E2E2E2E2E2E2E2E2E2E2E2E2E2E2E2E2E2E2E2E2E2E2E2E2E2E2E2E2E2E2E2E2E2E2E2E2E2E2E2E2E2E2E2E2E2E2E2E2E2E2E2E2F5E2E2E2E2E2E2E2E2E2E2E2E2E2E2E2E2E2E2E2E2E2E2E2E2E2E2E2F5F5E2E2E2E2E2E2E2E2E2E2E2F5E2E2E2E2E2E2E2E2E2E2E2E2E2E2E2F5E2E2E2E2E2E2
310
E2E2E2E2E2E2E2E2E2E2E2E2E2E2E2E2E2E2E2E2E2E2E2E2E2E2E2E2E2E2E2E2E2E2E2E2E2E2E2E2E2E2E2E2E2E2E2E2E2E2E2E2E2E2E2E2E2E2E2E2E2E2E2E2E2E2E2E2E2E2E2E2E2E2E2E2E2E2E2E2E2E2E2E2E2E2E2E2E2E2E2E2E2E2E2E2E2E2E2E2E2E2E2E2E2E2E2E2E2E2E2E2E2E2E2E2F5E2E2E2E2E2E2E2E2E2E2
310
E2E2E2E2E2F5E2E2E2E2E2E2E2E2E2E2E2F5F5E2E2E2E2E2E2E2E2E2E2E2F5E2E2E2E2E2E2E2E2E2E2E2E2E2E2E2F5E2E2E2E2E2E2E2E2E2E2E2E2E2E2E2E2E2E2E2E2E2E2E2E2E2E2E2E2E2E2E2E2E2E2E2E2E2E2E2E2E2E2E2E2E2E2E2E2E2E2E2E2E2E2E2E2E2E2E2E2E2E2E2E2E2E2E2E2E2E2E2E2E2E2E2E2E2E2E2E2
310
E2E2E2E2E2E2E2E2E2E2E2E2E2E2E2E2E2E2E2E2E2E2E2E2E2E2E2E2E2E2E2E2E2E2E2E2E2E2E2E2E2E2F5E2E2E2E2E2E2E2E2E2E2E2E2E2E2E2F5E2E2E2E2E2E2E2E2E2E2E2F5F5E2E2E2E2E2E2E2E2E2E2E2F5E2E2E2E2E2E2E2E2E2E2E2E2E2E2E2F5E2E2E2E2E2E2E2E2E2E2E2E2E2E2E2E2E2E2E2E2E2E2E2E2E2E2E2
310
E2E2E2E2E2E2E2E2E2E2E2E2E2E2E2E2E2E2E2E2E2E2E2E2E2E2E2E2E2E2E2E2E2E2E2E2E2E2E2E2E2E2E2E2E2E2E2E2E2E2E2E2E2E2E2E2E2E2E2E2E2E2E2E2E2E2E2E2E2E2E2E2E2E2E2E2E2E2E2E2E2E2E2E2E2E2E2E2E2E2E2E2E2E2E2F5E2E2E2E2E2E2E2E2E2E2E2E2E2E2E2F5E2E2E2E2E2E2E2E2E2E2E2F5F5E2E2
310
E2E2E2E2E2E2E2E2E2F5E2E2E2E2E2E2E2E2E2E2E2E2E2E2E2F5E2E2E2E2E2E2E2E2E2E2E2E2E2E2E2E2E2E2E2E2E2E2E2E2E2E2E2E2E2E2E2E2E2E2E2E2E2E2E2E2E2E2E2E2E2E2E2E2E2E2E2E2E2E2E2E2E2E2E2E2E2E2E2E2E2E2E2E2E2E2E2E2E2E2E2E2E2E2E2E2E2E2E2E2E2E2E2E2E2E2E2E2E2E2E2E2E2E2E2E2E2
310
E2E2E2E2E2E2E2E2E2E2E2E2E2E2E2E2E2E2E2E2E2F5E2E2E2E2E2E2E2E2E2E2E2E2E2E2E2F5E2E2E2E2E2E2E2E2E2E2E2F5F5E2E2E2E2E2E2E2E2E2E2E2F5E2E2E2E2E2E2E2E2E2E2E2E2E2E2E2F5E2E2E2E2E2E2E2E2E2E2E2E2E2E2E2E2E2E2E2E2E2E2E2E2E2E2E2E2E2E2E2E2E2E2E2E2E2E2E2E2E2E2E2E2E2E2E2E2
310
E2E2E2E2E2E2E2E2E2E2E2E2E2E2E2E2E2E2E2E2E2E2E2E2E2E2E2E2E2E2E2E2E2E2E2E2E2E2E2E2E2E2E2E2E2E2E2E2E2E2E2E2E2E2E2E2E2E2E2E2E2E2E2E2E2E2E2E2E2E2E2E2E2E2F5E2E2E2E2E2E2E2E2E2E2E2E2E2E2E2F5E2E2E2E2E2E2E2E2E2E2E2F5F5E2E2E2E2E2E2E2E2E2E2E2F5E2E2E2E2E2E2E2E2E2E2E2
310
E2E2E2E2F5E2E2E2E2E2E2E2E2E2E2E2E2E2E2E2E2E2E2E2E2E2E2E2E2E2E2E2E2E2E2E2E2E2E2E2E2E2E2E2E2E2E2E2E2E2E2E2E2E2E2E2E2E2E2E2E2E2E2E2E2E2E2E2E2E2E2E2E2E2E2E2E2E2E2E2E2E2E2E2E2E2E2E2E2E2E2E2E2E2E2E2E2E2E2E2E2E2E2E2E2E2E2E2E2E2E2E2E2E2E2E2E2E2E2E2E2E2E2E2E2E2E2
310
F5E2E2E2E2E2E2E2E2E2E2E2E2E2E2E2F5E2E2E2E2E2E2E2E2E2E2E2F5F5E2E2E2E2E2E2E2E2E2E2E2F5E2E2E2E2E2E2E2E2E2E2E2E2E2E2E2F5E2E2E2E2E2E2E2E2E2E2E2E2E2E2E2E2E2E2E2E2E2E2E2E2E2E2E2E2E2E2E2E2E2E2E2E2E2E2E2E2E2E2E2E2E2E2E2E2E2E2E2E2E2E2E2E2E2E2E2E2E2E2E2E2E2E2E2E2E2
310
E2E2E2E2E2E2E2E2E2E2E2E2E2E2E2E2E2E2E2E2E2E2E2E2E2E2E2E2E2E2E2E2E2E2E2E2E2E2E2E2E2E2E2E2E2E2E2E2E2E2E2E2E2F5E2E2E2E2E2E2E2E2E2E2E2E2E2E2E2F5E2E2E2E2E2E2E2E2E2E2E2F5F5E2E2E2E2E2E2E2E2E2E2E2F5E2E2E2E2E2E2E2E2E2E2E2E2E2E2E2F5E2E2E2E2E2E2E2E2E2E2E2E2E2E2E2E2
310
E2E2E2E2E2E2E2E2E2E2E2E2E2E2E2E2E2E2E2E2E2E2E2E2E2E2E2E2E2E2E2E2E2E2E2E2E2E2E2E2E2E2E2E2E2E2E2E2E2E2E2E2E2E2E2E2E2E2E2E2E2E2E2E2E2E2E2E2E2E2E2E2E2E2E2E2E2E2E2E2E2E2E2E2E2E2E2E2E2E2E2E2E2E2E2E2E2E2E2E2E2E2E2E2E2E2F5E2E2E2E2E2E2E2E2E2E2E2E2E2E2E2F5E2E2E2E2
310
E2E2E2E2E2E2E2F5F5E2E2E2E2E2E2E2E2E2E2E2F5E2E2E2E2E2E2E2E2E2E2E2E2E2E2E2F5E2E2E2E2E2E2E2E2E2E2E2E2E2E2E2E2E2E2E2E2E2E2E2E2E2E2E2E2E2E2E2E2E2E2E2E2E2E2E2E2E2E2E2E2E2E2E2E2E2E2E2E2E2E2E2E2E2E2E2E2E2E2E2E2E2E2E2E2E2E2E2E2E2E2E2E2E2E2E2E2E2E2E2E2E2E2E2E2E2E2
310
E2E2E2E2E2E2E2E2E2E2E2E2E2E2E2E2E2E2E2E2E2E2E2E2E2E2E2E2E2E2E2E2F5E2E2E2E2E2E2E2E2E2E2E2E2E2E2E2F5E2E2E2E2E2E2E2E2E2E2E2F5F5E2E2E2E2E2E2E2E2E2E2E2F5E2E2E2E2E2E2E2E2E2E2E2E2E2E2E2F5E2E2E2E2E2E2E2E2E2E2E2E2E2E2E2E2E2E2E2E2E2E2E2E2E2E2E2E2E2E2E2E2E2E2E2E2E2
310
E2E2E2E2E2E2E2E2E2E2E2E2E2E2E2E2E2E2E2E2E2E2E2E2E2E2E2E2E2E2E2E2E2E2E2E2E2E2E2E2E2E2E2E2E2E2E2E2E2E2E2E2E2E2E2E2E2E2E2E2E2E2E2E2E2E2E2E2E2E2E2E2E2E2E2E2E2E2E2E2E2E2E2E2E2F5E2E2E2E2E2E2E2E2E2E2E2E2E2E2E2F5E2E2E2E2E2E2E2E2E2E2E2F5F5E2E2E2E2E2E2E2E2E2E2E2F5
310
E2E2E2E2E2E2E2E2E2E2E2E2E2E2E2F5E2E2E2E2E2E2E2E2E2E2E2E2E2E2E2E2E2E2E2E2E2E2E2E2E2E2E2E2E2E2E2E2E2E2E2E2E2E2E2E2E2E2E2E2E2E2E2E2E2E2E2E2E2E2E2E2E2E2E2E2E2E2E2E2E2E2E2E2E2E2E2E2E2E2E2E2E2E2E2E2E2E2E2E2E2E2E2E2E2E2E2E2E2E2E2E2E2E2E2E2E2E2E2E2E2E2E2E2E2E2E2
310
E2E2E2E2E2E2E2E2E2E2E2F5E2E2E2E2E2E2E2E2E2E2E2E2E2E2E2F5E2E2E2E2E2E2E2E2E2E2E2F5F5E2E2E2E2E2E2E2E2E2E2E2F5E2E2E2E2E2E2E2E2E2E2E2E2E2E2E2F5E2E2E2E2E2E2E2E2E2E2E2E2E2E2E2E2E2E2E2E2E2E2E2E2E2E2E2E2E2E2E2E2E2E2E2E2E2E2E2E2E2E2E2E2E2E2E2E2E2E2E2E2E2E2E2E2E2E2
310
E2E2E2E2E2E2E2E2E2E2E2E2E2E2E2E2E2E2E2E2E2E2E2E2E2E2E2E2E2E2E2E2E2E2E2E2E2E2E2E2E2E2E2E2E2E2E2E2E2E2E2E2E2E2E2E2E2E2E2E2E2E2E2E2F5E2E2E2E2E2E2E2E2E2E2E2E2E2E2E2F5E2E2E2E2E2E2E2E2E2E2E2F5F5E2E2E2E2E2E2E2E2E2E2E2F5E2E2E2E2E2E2E2E2E2E2E2E2E2E2E2F5E2E2E2E2E2
310
E2E2E2E2E2E2E2E2E2E2E2E2E2E2E2E2E2E2E2E2E2E2E2E2E2E2E2E2E2E2E2E2E2E2E2E2E2E2E2E2E2E2E2E2E2E2E2E2E2E2E2E2E2E2E2E2E2E2E2E2E2E2E2E2E2E2E2E2E2E2E2E2E2E2E2E2E2E2E2E2E2E2E2E2E2E2E2E2E2E2E2E2E2E2E2E2E2E2E2E2E2E2E2E2E2E2E2E2E2E2E2E2E2E2E2E2E2F5E2E2E2E2E2E2E2E2E2
310
E2E2E2E2E2E2F5E2E2E2E2E2E2E2E2E2E2E2F5F5E2E2E2E2E2E2E2E2E2E2E2F5E2E2E2E2E2E2E2E2E2E2E2E2E2E2E2F5E2E2E2E2E2E2E2E2E2E2E2E2E2E2E2E2E2E2E2E2E2E2E2E2E2E2E2E2E2E2E2E2E2E2E2E2E2E2E2E2E2E2E2E2E2E2E2E2E2E2E2E2E2E2E2E2E2E2E2E2E2E2E2E2E2E2E2E2E2E2E2E2E2E2E2E2E2E2E2
310
E2E2E2E2E2E2E2E2E2E2E2E2E2E2E2E2E2E2E2E2E2E2E2E2E2E2E2E2E2E2E2E2E2E2E2E2E2E2E2E2E2E2E2F5E2E2E2E2E2E2E2E2E2E2E2E2E2E2E2F5E2E2E2E2E2E2E2E2E2E2E2F5F5E2E2E2E2E2E2E2E2E2E2E2F5E2E2E2E2E2E2E2E2E2E2E2E2E2E2E2F5E2E2E2E2E2E2E2E2E2E2E2E2E2E2E2E2E2E2E2E2E2E2E2E2E2E2
310
E2E2E2E2E2E2E2E2E2E2E2E2E2E2E2E2E2E2E2E2E2E2E2E2E2E2E2E2E2E2E2E2E2E2E2E2E2E2E2E2E2E2E2E2E2E2E2E2E2E2E2E2E2E2E2E2E2E2E2E2E2E2E2E2E2E2E2E2E2E2E2E2E2E2E2E2E2E2E2E2E2E2E2E2E2E2E2E2E2E2E2E2E2E2E2E2F5E2E2E2E2E2E2E2E2E2E2E2E2E2E2E2F5E2E2E2E2E2E2E2E2E2E2E2F5F5E2
310
E2E2E2E2E2E2E2E2E2E2E2E2E2E2E2E2E2E2E2E2E2E2E2E2E2E2F5E2E2E2E2E2E2E2E2E2E2E2E2E2E2E2E2E2E2E2E2E2E2E2E2E2E2E2E2E2E2E2E2E2E2E2E2E2E2E2E2E2E2E2E2E2E2E2E2E2E2E2E2E2E2E2E2E2E2E2E2E2E2E2E2E2E2E2E2E2E2E2E2E2E2E2E2E2E2E2E2E2E2E2E2E2E2E2E2E2E2E2E2E2E2E2E2E2E2E2E2
310
E2E2E2E2E2E2E2E2E2E2E2E2E2E2E2E2E2E2E2E2E2E2F5E2E2E2E2E2E2E2E2E2E2E2E2E2E2E2E2E2E2E2E2E2E2E2E2E2E2E2F5F5E2E2E2E2E2E2E2E2E2E2E2E2E2E2E2E2E2E2E2E2E2E2E2E2E2E2E2F5E2E2E2E2E2E2E2E2E2E2E2E2E2E2E2E2E2E2E2E2E2E2E2E2E2E2E2E2E2E2E2E2E2E2E2E2E2E2E2E2E2E2E2E2E2E2E2
310
E2E2E2E2E2E2E2E2E2E2E2E2E2E2E2E2E2E2E2E2E2E2E2E2E2E2E2E2E2E2E2E2E2E2E2E2E2E2E2E2E2E2E2E2E2E2E2E2E2E2E2E2E2E2E2E2E2E2E2E2E2E2E2E2E2E2E2E2E2E2E2E2E2E2E2F5E2E2E2E2E2E2E2E2E2E2E2E2E2E2E2E2E2E2E2E2E2E2E2E2E2E2E2F5F5E2E2E2E2E2E2E2E2E2E2E2E2E2E2E2E2E2E2E2E2E2E2
310
E2E2E2E2E2F5E2E2E2E2E2E2E2E2E2E2E2E2E2E2E2E2E2E2E2E2E2E2E2E2E2E2E2E2E2E2E2E2E2E2E2E2E2E2E2E2E2E2E2E2E2E2E2E2E2E2E2E2E2E2E2E2E2E2E2E2E2E2E2E2E2E2E2E2E2E2E2E2E2E2E2E2E2E2E2E2E2E2E2E2E2E2E2E2E2E2E2E2E2E2E2E2E2E2E2E2E2E2E2E2E2E2E2E2E2E2E2E2E2E2E2E2E2E2E2E2E2
310
E2F5E2E2E2E2E2E2E2E2E2E2E2E2E2E2E2E2E2E2E2E2E2E2E2E2E2E2E2F5F5E2E2E2E2E2E2E2E2E2E2E2E2E2E2E2E2E2E2E2E2E2E2E2E2E2E2E2F5E2E2E2E2E2E2E2E2E2E2E2E2E2E2E2E2E2E2E2E2E2E2E2E2E2E2E2E2E2E2E2E2E2E2E2E2E2E2E2E2E2E2E2E2E2E2E2E2E2E2E2E2E2E2E2E2E2E2E2E2E2E2E2E2E2E2E2E2
310
E2E2E2E2E2E2E2E2E2E2E2E2E2E2E2E2E2E2E2E2E2E2E2E2E2E2E2E2E2E2E2E2E2E2E2E2E2E2E2E2E2E2E2E2E2E2E2E2E2E2E2E2E2E2F5E2E2E2E2E2E2E2E2E2E2E2E2E2E2E2E2E2E2E2E2E2E2E2E2E2E2E2F5F5E2E2E2E2E2E2E2E2E2E2E2E2E2E2E2E2E2E2E2E2E2E2E2E2E2E2E2F5E2E2E2E2E2E2E2E2E2E2E2E2E2E2E2
310
E2E2E2E2E2E2E2E2E2E2E2E2E2E2E2E2E2E2E2E2E2E2E2E2E2E2E2E2E2E2E2E2E2E2E2E2E2E2E2E2E2E2E2E2E2E2E2E2E2E2E2E2E2E2E2E2E2E2E2E2E2E2E2E2E2E2E2E2E2E2E2E2E2E2E2E2E2E2E2E2E2E2E2E2E2E2E2E2E2E2E2E2E2E2E2E2E2E2E2E2E2E2E2E2E2E2E2F5E2E2E2E2E2E2E2E2E2E2E2E2E2E2E2E2E2E2E2
310
E2E2E2E2E2E2E2E2F5F5E2E2E2E2E2E2E2E2E2E2E2E2E2E2E2E2E2E2E2E2E2E2E2E2E2E2E2F5E2E2E2E2E2E2E2E2E2E2E2E2E2E2E2E2E2E2E2E2E2E2E2E2E2E2E2E2E2E2E2E2E2E2E2E2E2E2E2E2E2E2E2E2E2E2E2E2E2E2E2E2E2E2E2E2E2E2E2E2E2E2E2E2E2E2E2E2E2E2E2E2E2E2E2E2E2E2E2E2E2E2E2E2E2E2E2E2E2
310
E2E2E2E2E2E2E2E2E2E2E2E2E2E2E2E2E2E2E2E2E2E2E2E2E2E2E2E2E2E2E2E2E2F5E2E2E2E2E2E2E2E2E2E2E2E2E2E2E2E2E2E2E2E2E2E2E2E2E2E2E2F5F5E2E2E2E2E2E2E2E2E2E2E2E2E2E2E2E2E2E2E2E2E2E2E2E2E2E2E2F5E2E2E2E2E2E2E2E2E2E2E2E2E2E2E2E2E2E2E2E2E2E2E2E2E2E2E2E2E2E2E2E2E2E2E2E2
310
E2E2E2E2E2E2E2E2E2E2E2E2E2E2E2E2E2E2E2E2E2E2E2E2E2E2E2E2E2E2E2E2E2E2E2E2E2E2E2E2E2E2E2E2E2E2E2E2E2E2E2E2E2E2E2E2E2E2E2E2E2E2E2E2E2E2E2E2E2E2E2E2E2E2E2E2E2E2E2E2E2E2E2E2E2E2F5E2E2E2E2E2E2E2E2E2E2E2E2E2E2E2E2E2E2E2E2E2E2E2E2E2E2E2F5F5E2E2E2E2E2E2E2E2E2E2E2
310
E2E2E2E2E2E2E2E2E2E2E2E2E2E2E2E2F5E2E2E2E2E2E2E2E2E2E2E2E2E2E2E2E2E2E2E2E2E2E2E2E2E2E2E2E2E2E2E2E2E2E2E2E2E2E2E2E2E2E2E2E2E2E2E2E2E2E2E2E2E2E2E2E2E2E2E2E2E2E2E2E2E2E2E2E2E2E2E2E2E2E2E2E2E2E2E2E2E2E2E2E2E2E2E2E2E2E2E2E2E2E2E2E2E2E2E2E2E2E2E2E2E2E2E2E2E2E2
310
E2E2E2E2E2E2E2E2E2E2E2E2F5E2E2E2E2E2E2E2E2E2E2E2E2E2E2E2E2E2E2E2E2E2E2E2E2E2E2E2F5F5E2E2E2E2E2E2E2E2E2E2E2E2E2E2E2E2E2E2E2E2E2E2E2E2E2E2E2F5E2E2E2E2E2E2E2E2E2E2E2E2E2E2E2E2E2E2E2E2E2E2E2E2E2E2E2E2E2E2E2E2E2E2E2E2E2E2E2E2E2E2E2E2E2E2E2E2E2E2E2E2E2E2E2E2E2
310
E2E2E2E2E2E2E2E2E2E2E2E2E2E2E2E2E2E2E2E2E2E2E2E2E2E2E2E2E2E2E2E2E2E2E2E2E2E2E2E2E2E2E2E2E2E2E2E2E2E2E2E2E2E2E2E2E2E2E2E2E2E2E2E2E2F5E2E2E2E2E2E2E2E2E2E2E2E2E2E2E2E2E2E2E2E2E2E2E2E2E2E2E2F5F5E2E2E2E2E2E2E2E2E2E2E2F5E2E2E2E2E2E2E2E2E2E2E2E2E2E2E2F5E2E2E2E2
310
E2E2E2E2E2E2E2E2E2E2E2E2E2E2E2E2E2E2E2E2E2E2E2E2E2E2E2E2E2E2E2E2E2E2E2E2E2E2E2E2E2E2E2E2E2E2E2E2E2E2E2E2E2E2E2E2E2E2E2E2E2E2E2E2E2E2E2E2E2E2E2E2E2E2E2E2E2E2E2E2E2E2E2E2E2E2E2E2E2E2E2E2E2E2E2E2E2E2E2E2E2E2E2E2E2E2E2E2E2E2E2E2E2E2E2E2E2E2F5E2E2E2E2E2E2E2E2
310
E2E2E2E2E2E2E2F5E2E2E2E2E2E2E2E2E2E2E2F5F5E2E2E2E2E2E2E2E2E2E2E2F5E2E2E2E2E2E2E2E2E2E2E2E2E2E2E2F5E2E2E2E2E2E2E2E2E2E2E2E2E2E2E2E2E2E2E2E2E2E2E2E2E2E2E2E2E2E2E2E2E2E2E2E2E2E2E2E2E2E2E2E2E2E2E2E2E2E2E2E2E2E2E2E2E2E2E2E2E2E2E2E2E2E2E2E2E2E2E2E2E2E2E2E2E2E2
310
E2E2E2E2E2E2E2E2E2E2E2E2E2E2E2E2E2E2E2E2E2E2E2E2E2E2E2E2E2E2E2E2E2E2E2E2E2E2E2E2E2E2E2E2F5E2E2E2E2E2E2E2E2E2E2E2E2E2E2E2F5E2E2E2E2E2E2E2E2E2E2E2F5F5E2E2E2E2E2E2E2E2E2E2E2F5E2E2E2E2E2E2E2E2E2E2E2E2E2E2E2F5E2E2E2E2E2E2E2E2E2E2E2E2E2E2E2E2E2E2E2E2E2E2E2E2E2
310
E2E2E2E2E2E2E2E2E2E2E2E2E2E2E2E2E2E2E2E2E2E2E2E2E2E2E2E2E2E2E2E2E2E2E2E2E2E2E2E2E2E2E2E2E2E2E2E2E2E2E2E2E2E2E2E2E2E2E2E2E2E2E2E2E2E2E2E2E2E2E2E2E2E2E2E2E2E2E2E2E2E2E2E2E2E2E2E2E2E2E2E2E2E2E2E2E2F5E2E2E2E2E2E2E2E2E2E2E2E2E2E2E2F5E2E2E2E2E2E2E2E2E2E2E2F5F5
310
E2E2E2E2E2E2E2E2E2E2E2F5E2E2E2E2E2E2E2E2E2E2E2E2E2E2E2F5E2E2E2E2E2E2E2E2E2E2E2E2E2E2E2E2E2E2E2E2E2E2E2E2E2E2E2E2E2E2E2E2E2E2E2E2E2E2E2E2E2E2E2E2E2E2E2E2E2E2E2E2E2E2E2E2E2E2E2E2E2E2E2E2E2E2E2E2E2E2E2E2E2E2E2E2E2E2E2E2E2E2E2E2E2E2E2E2E2E2E2E2E2E2E2E2E2E2E2
310
E2E2E2E2E2E2E2E2E2E2E2E2E2E2E2E2E2E2E2E2E2E2E2F5E2E2E2E2E2E2E2E2E2E2E2E2E2E2E2F5E2E2E2E2E2E2E2E2E2E2E2F5F5E2E2E2E2E2E2E2E2E2E2E2F5E2E2E2E2E2E2E2E2E2E2E2E2E2E2E2F5E2E2E2E2E2E2E2E2E2E2E2E2E2E2E2E2E2E2E2E2E2E2E2E2E2E2E2E2E2E2E2E2E2E2E2E2E2E2E2E2E2E2E2E2E2E2
310
E2E2E2E2E2E2E2E2E2E2E2E2E2E2E2E2E2E2E2E2E2E2E2E2E2E2E2E2E2E2E2E2E2E2E2E2E2E2E2E2E2E2E2E2E2E2E2E2E2E2E2E2E2E2E2E2E2E2E2E2E2E2E2E2E2E2E2E2E2E2E2E2E2E2E2E2F5E2E2E2E2E2E2E2E2E2E2E2E2E2E2E2F5E2E2E2E2E2E2E2E2E2E2E2F5F5E2E2E2E2E2E2E2E2E2E2E2F5E2E2E2E2E2E2E2E2E2
310
E2E2E2E2E2E2F5E2E2E2E2E2E2E2E2E2E2E2E2E2E2E2E2E2E2E2E2E2E2E2E2E2E2E2E2E2E2E2E2E2E2E2E2E2E2E2E2E2E2E2E2E2E2E2E2E2E2E2E2E2E2E2E2E2E2E2E2E2E2E2E2E2E2E2E2E2E2E2E2E2E2E2E2E2E2E2E2E2E2E2E2E2E2E2E2E2E2E2E2E2E2E2E2E2E2E2E2E2E2E2E2E2E2E2E2E2E2E2E2E2E2E2E2E2E2E2E2
310
E2E2F5E2E2E2E2E2E2E2E2E2E2E2E2E2E2E2F5E2E2E2E2E2E2E2E2E2E2E2F5F5E2E2E2E2E2E2E2E2E2E2E2F5E2E2E2E2E2E2E2E2E2E2E2E2E2E2E2F5E2E2E2E2E2E2E2E2E2E2E2E2E2E2E2E2E2E2E2E2E2E2E2E2E2E2E2E2E2E2E2E2E2E2E2E2E2E2E2E2E2E2E2E2E2E2E2E2E2E2E2E2E2E2E2E2E2E2E2E2E2E2E2E2E2E2E2
310
E2E2E2E2E2E2E2E2E2E2E2E2E2E2E2E2E2E2E2E2E2E2E2E2E2E2E2E2E2E2E2E2E2E2E2E2E2E2E2E2E2E2E2E2E2E2E2E2E2E2E2E2E2E2E2F5E2E2E2E2E2E2E2E2E2E2E2E2E2E2E2F5E2E2E2E2E2E2E2E2E2E2E2F5F5E2E2E2E2E2E2E2E2E2E2E2F5E2E2E2E2E2E2E2E2E2E2E2E2E2E2E2F5E2E2E2E2E2E2E2E2E2E2E2E2E2E2
310
E2E2E2E2E2E2E2E2E2E2E2E2E2E2E2E2E2E2E2E2E2E2E2E2E2E2E2E2E2E2E2E2E2E2E2E2E2E2E2E2E2E2E2E2E2E2E2E2E2E2E2E2E2E2E2E2E2E2E2E2E2E2E2E2E2E2E2E2E2E2E2E2E2E2E2E2E2E2E2E2E2E2E2E2E2E2E2E2E2E2E2E2E2E2E2E2E2E2E2E2E2E2E2E2E2E2E2E2F5E2E2E2E2E2E2E2E2E2E2E2E2E2E2E2F5E2E2
310
E2E2E2E2E2E2E2E2E2F5F5E2E2E2E2E2E2E2E2E2E2E2F5E2E2E2E2E2E2E2E2E2E2E2E2E2E2E2F5E2E2E2E2E2E2E2E2E2E2E2E2E2E2E2E2E2E2E2E2E2E2E2E2E2E2E2E2E2E2E2E2E2E2E2E2E2E2E2E2E2E2E2E2E2E2E2E2E2E2E2E2E2E2E2E2E2E2E2E2E2E2E2E2E2E2E2E2E2E2E2E2E2E2E2E2E2E2E2E2E2E2E2E2E2E2E2E2
310
E2E2E2E2E2E2E2E2E2E2E2E2E2E2E2E2E2E2E2E2E2E2E2E2E2E2E2E2E2E2E2E2E2E2F5E2E2E2E2E2E2E2E2E2E2E2E2E2E2E2F5E2E2E2E2E2E2E2E2E2E2E2F5F5E2E2E2E2E2E2E2E2E2E2E2F5E2E2E2E2E2E2E2E2E2E2E2E2E2E2E2F5E2E2E2E2E2E2E2E2E2E2E2E2E2E2E2E2E2E2E2E2E2E2E2E2E2E2E2E2E2E2E2E2E2E2E2
310
E2E2E2E2E2E2E2E2E2E2E2E2E2E2E2E2E2E2E2E2E2E2E2E2E2E2E2E2E2E2E2E2E2E2E2E2E2E2E2E2E2E2E2E2E2E2E2E2E2E2E2E2E2E2E2E2E2E2E2E2E2E2E2E2E2E2E2E2E2E2E2E2E2E2E2E2E2E2E2E2E2E2E2E2E2E2E2F5E2E2E2E2E2E2E2E2E2E2E2E2E2E2E2F5E2E2E2E2E2E2E2E2E2E2E2F5F5E2E2E2E2E2E2E2E2E2E2
310
E2F5E2E2E2E2E2E2E2E2E2E2E2E2E2E2E2F5E2E2E2E2E2E2E2E2E2E2E2E2E2E2E2E2E2E2E2E2E2E2E2E2E2E2E2E2E2E2E2E2E2E2E2E2E2E2E2E2E2E2E2E2E2E2E2E2E2E2E2E2E2E2E2E2E2E2E2E2E2E2E2E2E2E2E2E2E2E2E2E2E2E2E2E2E2E2E2E2E2E2E2E2E2E2E2E2E2E2E2E2E2E2E2E2E2E2E2E2E2E2E2E2E2E2E2E2E2
310
E2E2E2E2E2E2E2E2E2E2E2E2E2F5E2E2E2E2E2E2E2E2E2E2E2E2E2E2E2F5E2E2E2E2E2E2E2E2E2E2E2F5F5E2E2E2E2E2E2E2E2E2E2E2F5E2E2E2E2E2E2E2E2E2E2E2E2E2E2E2F5E2E2E2E2E2E2E2E2E2E2E2E2E2E2E2E2E2E2E2E2E2E2E2E2E2E2E2E2E2E2E2E2E2E2E2E2E2E2E2E2E2E2E2E2E2E2E2E2E2E2E2E2E2E2E2E2
310
E2E2E2E2E2E2E2E2E2E2E2E2E2E2E2E2E2E2E2E2E2E2E2E2E2E2E2E2E2E2E2E2E2E2E2E2E2E2E2E2E2E2E2E2E2E2E2E2E2E2E2E2E2E2E2E2E2E2E2E2E2E2E2E2E2E2F5E2E2E2E2E2E2E2E2E2E2E2E2E2E2E2F5E2E2E2E2E2E2E2E2E2E2E2F5F5E2E2E2E2E2E2E2E2E2E2E2F5E2E2E2E2E2E2E2E2E2E2E2E2E2E2E2F5E2E2E2
310
E2E2E2E2E2E2E2E2E2E2E2E2E2E2E2E2E2E2E2E2E2E2E2E2E2E2E2E2E2E2E2E2E2E2E2E2E2E2E2E2E2E2E2E2E2E2E2E2E2E2E2E2E2E2E2E2E2E2E2E2E2E2E2E2E2E2E2E2E2E2E2E2E2E2E2E2E2E2E2E2E2E2E2E2E2E2E2E2E2E2E2E2E2E2E2E2E2E2E2E2E2E2E2E2E2E2E2E2E2E2E2E2E2E2E2E2E2E2E2F5E2E2E2E2E2E2E2
310
E2E2E2E2E2E2E2E2F5E2E2E2E2E2E2E2E2E2E2E2F5F5E2E2E2E2E2E2E2E2E2E2E2F5E2E2E2E2E2E2E2E2E2E2E2E2E2E2E2F5E2E2E2E2E2E2E2E2E2E2E2E2E2E2E2E2E2E2E2E2E2E2E2E2E2E2E2E2E2E2E2E2E2E2E2E2E2E2E2E2E2E2E2E2E2E2E2E2E2E2E2E2E2E2E2E2E2E2E2E2E2E2E2E2E2E2E2E2E2E2E2E2E2E2E2E2E2
310
E2E2E2E2E2E2E2E2E2E2E2E2E2E2E2E2E2E2E2E2E2E2E2E2E2E2E2E2E2E2E2E2E2E2E2E2E2E2E2E2E2E2E2E2E2F5E2E2E2E2E2E2E2E2E2E2E2E2E2E2E2F5E2E2E2E2E2E2E2E2E2E2E2F5F5E2E2E2E2E2E2E2E2E2E2E2F5E2E2E2E2E2E2E2E2E2E2E2E2E2E2E2F5E2E2E2E2E2E2E2E2E2E2E2E2E2E2E2E2E2E2E2E2E2E2E2E2
310
E2E2E2E2E2E2E2E2E2E2E2E2E2E2E2E2E2E2E2E2E2E2E2E2E2E2E2E2E2E2E2E2E2E2E2E2E2E2E2E2E2E2E2E2E2E2E2E2E2E2E2E2E2E2E2E2E2E2E2E2E2E2E2E2E2E2E2E2E2E2E2E2E2E2E2E2E2E2E2E2E2E2E2E2E2E2E2E2E2E2E2E2E2E2E2E2E2E2F5E2E2E2E2E2E2E2E2E2E2E2E2E2E2E2F5E2E2E2E2E2E2E2E2E2E2E2F5
310
F5E2E2E2E2E2E2E2E2E2E2E2E2E2E2E2E2E2E2E2E2E2E2E2E2E2E2E2F5E2E2E2E2E2E2E2E2E2E2E2E2E2E2E2E2E2E2E2E2E2E2E2E2E2E2E2E2E2E2E2E2E2E2E2E2E2E2E2E2E2E2E2E2E2E2E2E2E2E2E2E2E2E2E2E2E2E2E2E2E2E2E2E2E2E2E2E2E2E2E2E2E2E2E2E2E2E2E2E2E2E2E2E2E2E2E2E2E2E2E2E2E2E2E2E2E2E2
310
E2E2E2E2E2E2E2E2E2E2E2E2E2E2E2E2E2E2E2E2E2E2E2E2F5E2E2E2E2E2E2E2E2E2E2E2E2E2E2E2E2E2E2E2E2E2E2E2E2E2E2E2F5F5E2E2E2E2E2E2E2E2E2E2E2E2E2E2E2E2E2E2E2E2E2E2E2E2E2E2E2F5E2E2E2E2E2E2E2E2E2E2E2E2E2E2E2E2E2E2E2E2E2E2E2E2E2E2E2E2E2E2E2E2E2E2E2E2E2E2E2E2E2E2E2E2E2
310
E2E2E2E2E2E2E2E2E2E2E2E2E2E2E2E2E2E2E2E2E2E2E2E2E2E2E2E2E2E2E2E2E2E2E2E2E2E2E2E2E2E2E2E2E2E2E2E2E2E2E2E2E2E2E2E2E2E2E2E2E2E2E2E2E2E2E2E2E2E2E2E2E2E2E2E2E2F5E2E2E2E2E2E2E2E2E2E2E2E2E2E2E2E2E2E2E2E2E2E2E2E2E2E2E2F5F5E2E2E2E2E2E2E2E2E2E2E2E2E2E2E2E2E2E2E2E2
310
E2E2E2E2E2E2E2F5E2E2E2E2E2E2E2E2E2E2E2E2E2E2E2E2E2E2E2E2E2E2E2E2E2E2E2E2E2E2E2E2E2E2E2E2E2E2E2E2E2E2E2E2E2E2E2E2E2E2E2E2E2E2E2E2E2E2E2E2E2E2E2E2E2E2E2E2E2E2E2E2E2E2E2E2E2E2E2E2E2E2E2E2E2E2E2E2E2E2E2E2E2E2E2E2E2E2E2E2E2E2E2E2E2E2E2E2E2E2E2E2E2E2E2E2E2E2E2
310
E2E2E2F5E2E2E2E2E2E2E2E2E2E2E2E2E2E2E2E2E2E2E2E2E2E2E2E2E2E2E2F5F5E2E2E2E2E2E2E2E2E2E2E2E2E2E2E2E2E2E2E2E2E2E2E2E2E2E2E2F5E2E2E2E2E2E2E2E2E2E2E2E2E2E2E2E2E2E2E2E2E2E2E2E2E2E2E2E2E2E2E2E2E2E2E2E2E2E2E2E2E2E2E2E2E2E2E2E2E2E2E2E2E2E2E2E2E2E2E2E2E2E2E2E2E2E2
310
E2E2E2E2E2E2E2E2E2E2E2E2E2E2E2E2E2E2E2E2E2E2E2E2E2E2E2E2E2E2E2E2E2E2E2E2E2E2E2E2E2E2E2E2E2E2E2E2E2E2E2E2E2E2E2E2F5E2E2E2E2E2E2E2E2E2E2E2E2E2E2E2E2E2E2E2E2E2E2E2E2E2E2E2F5F5E2E2E2E2E2E2E2E2E2E2E2E2E2E2E2E2E2E2E2E2E2E2E2E2E2E2E2F5E2E2E2E2E2E2E2E2E2E2E2E2E2
310
E2E2E2E2E2E2E2E2E2E2E2E2E2E2E2E2E2E2E2E2E2E2E2E2E2E2E2E2E2E2E2E2E2E2E2E2E2E2E2E2E2E2E2E2E2E2E2E2E2E2E2E2E2E2E2E2E2E2E2E2E2E2E2E2E2E2E2E2E2E2E2E2E2E2E2E2E2E2E2E2E2E2E2E2E2E2E2E2E2E2E2E2E2E2E2E2E2E2E2E2E2E2E2E2E2E2E2E2E2F5E2E2E2E2E2E2E2E2E2E2E2E2E2E2E2E2E2
310
E2E2E2E2E2E2E2E2E2E2F5F5E2E2E2E2E2E2E2E2E2E2E2E2E2E2E2E2E2E2E2E2E2E2E2E2E2E2E2F5E2E2E2E2E2E2E2E2E2E2E2E2E2E2E2E2E2E2E2E2E2E2E2E2E2E2E2E2E2E2E2E2E2E2E2E2E2E2E2E2E2E2E2E2E2E2E2E2E2E2E2E2E2E2E2E2E2E2E2E2E2E2E2E2E2E2E2E2E2E2E2E2E2E2E2E2E2E2E2E2E2E2E2E2E2E2E2
310
E2E2E2E2E2E2E2E2E2E2E2E2E2E2E2E2E2E2E2E2E2E2E2E2E2E2E2E2E2E2E2E2E2E2E2F5E2E2E2E2E2E2E2E2E2E2E2E2E2E2E2E2E2E2E2E2E2E2E2E2E2E2E2F5F5E2E2E2E2E2E2E2E2E2E2E2E2E2E2E2E2E2E2E2E2E2E2E2E2E2E2E2F5E2E2E2E2E2E2E2E2E2E2E2E2E2E2E2E2E2E2E2E2E2E2E2E2E2E2E2E2E2E2E2E2E2E2
310
E2E2E2E2E2E2E2E2E2E2E2E2E2E2E2E2E2E2E2E2E2E2E2E2E2E2E2E2E2E2E2E2E2E2E2E2E2E2E2E2E2E2E2E2E2E2E2E2E2E2E2E2E2E2E2E2E2E2E2E2E2E2E2E2E2E2E2E2E2E2E2E2E2E2E2E2E2E2E2E2E2E2E2E2E2E2E2E2F5E2E2E2E2E2E2E2E2E2E2E2E2E2E2E2E2E2E2E2E2E2E2E2E2E2E2E2F5F5E2E2E2E2E2E2E2E2E2
310
E2E2E2E2E2E2E2E2E2E2E2E2E2E2E2E2E2E2F5E2E2E2E2E2E2E2E2E2E2E2E2E2E2E2E2E2E2E2E2E2E2E2E2E2E2E2E2E2E2E2E2E2E2E2E2E2E2E2E2E2E2E2E2E2E2E2E2E2E2E2E2E2E2E2E2E2E2E2E2E2E2E2E2E2E2E2E2E2E2E2E2E2E2E2E2E2E2E2E2E2E2E2E2E2E2E2E2E2E2E2E2E2E2E2E2E2E2E2E2E2E2E2E2E2E2E2E2
310
E2E2E2E2E2E2E2E2E2E2E2E2E2E2F5E2E2E2E2E2E2E2E2E2E2E2E2E2E2E2E2E2E2E2E2E2E2E2E2E2E2E2F5F5E2E2E2E2E2E2E2E2E2E2E2F5E2E2E2E2E2E2E2E2E2E2E2E2E2E2E2F5E2E2E2E2E2E2E2E2E2E2E2E2E2E2E2E2E2E2E2E2E2E2E2E2E2E2E2E2E2E2E2E2E2E2E2E2E2E2E2E2E2E2E2E2E2E2E2E2E2E2E2E2E2E2E2
310
E2E2E2E2E2E2E2E2E2E2E2E2E2E2E2E2E2E2E2E2E2E2E2E2E2E2E2E2E2E2E2E2E2E2E2E2E2E2E2E2E2E2E2E2E2E2E2E2E2E2E2E2E2E2E2E2E2E2E2E2E2E2E2E2E2E2E2F5E2E2E2E2E2E2E2E2E2E2E2E2E2E2E2F5E2E2E2E2E2E2E2E2E2E2E2F5F5E2E2E2E2E2E2E2E2E2E2E2F5E2E2E2E2E2E2E2E2E2E2E2E2E2E2E2F5E2E2
310
E2E2E2E2E2E2E2E2E2E2E2E2E2E2E2E2E2E2E2E2E2E2E2E2E2E2E2E2E2E2E2E2E2E2E2E2E2E2E2E2E2E2E2E2E2E2E2E2E2E2E2E2E2E2E2E2E2E2E2E2E2E2E2E2E2E2E2E2E2E2E2E2E2E2E2E2E2E2E2E2E2E2E2E2E2E2E2E2E2E2E2E2E2E2E2E2E2E2E2E2E2E2E2E2E2E2E2E2E2E2E2E2E2E2E2E2E2E2E2E2F5E2E2E2E2E2E2
310
E2E2E2E2E2E2E2E2E2F5E2E2E2E2E2E2E2E2E2E2E2F5F5E2E2E2E2E2E2E2E2E2E2E2F5E2E2E2E2E2E2E2E2E2E2E2E2E2E2E2F5E2E2E2E2E2E2E2E2E2E2E2E2E2E2E2E2E2E2E2E2E2E2E2E2E2E2E2E2E2E2E2E2E2E2E2E2E2E2E2E2E2E2E2E2E2E2E2E2E2E2E2E2E2E2E2E2E2E2E2E2E2E2E2E2E2E2E2E2E2E2E2E2E2E2E2E2
310
E2E2E2E2E2E2E2E2E2E2E2E2E2E2E2E2E2E2E2E2E2E2E2E2E2E2E2E2E2E2E2E2E2E2E2E2E2E2E2E2E2E2E2E2E2E2F5E2E2E2E2E2E2E2E2E2E2E2E2E2E2E2F5E2E2E2E2E2E2E2E2E2E2E2F5F5E2E2E2E2E2E2E2E2E2E2E2F5E2E2E2E2E2E2E2E2E2E2E2E2E2E2E2F5E2E2E2E2E2E2E2E2E2E2E2E2E2E2E2E2E2E2E2E2E2E2E2
310
E2E2E2E2E2E2E2E2E2E2E2E2E2E2E2E2E2E2E2E2E2E2E2E2E2E2E2E2E2E2E2E2E2E2E2E2E2E2E2E2E2E2E2E2E2E2E2E2E2E2E2E2E2E2E2E2E2E2E2E2E2E2E2E2E2E2E2E2E2E2E2E2E2E2E2E2E2E2E2E2E2E2E2E2E2E2E2E2E2E2E2E2E2E2E2E2E2E2E2F5E2E2E2E2E2E2E2E2E2E2E2E2E2E2E2F5E2E2E2E2E2E2E2E2E2E2E2
310
F5F5E2E2E2E2E2E2E2E2E2E2E2F5E2E2E2E2E2E2E2E2E2E2E2E2E2E2E2F5E2E2E2E2E2E2E2E2E2E2E2E2E2E2E2E2E2E2E2E2E2E2E2E2E2E2E2E2E2E2E2E2E2E2E2E2E2E2E2E2E2E2E2E2E2E2E2E2E2E2E2E2E2E2E2E2E2E2E2E2E2E2E2E2E2E2E2E2E2E2E2E2E2E2E2E2E2E2E2E2E2E2E2E2E2E2E2E2E2E2E2E2E2E2E2E2E2
310
E2E2E2E2E2E2E2E2E2E2E2E2E2E2E2E2E2E2E2E2E2E2E2E2E2F5E2E2E2E2E2E2E2E2E2E2E2E2E2E2E2F5E2E2E2E2E2E2E2E2E2E2E2F5F5E2E2E2E2E2E2E2E2E2E2E2F5E2E2E2E2E2E2E2E2E2E2E2E2E2E2E2F5E2E2E2E2E2E2E2E2E2E2E2E2E2E2E2E2E2E2E2E2E2E2E2E2E2E2E2E2E2E2E2E2E2E2E2E2E2E2E2E2E2E2E2E2
310
E2E2E2E2E2E2E2E2E2E2E2E2E2E2E2E2E2E2E2E2E2E2E2E2E2E2E2E2E2E2E2E2E2E2E2E2E2E2E2E2E2E2E2E2E2E2E2E2E2E2E2E2E2E2E2E2E2E2E2E2E2E2E2E2E2E2E2E2E2E2E2E2E2E2E2E2E2E2F5E2E2E2E2E2E2E2E2E2E2E2E2E2E2E2F5E2E2E2E2E2E2E2E2E2E2E2F5F5E2E2E2E2E2E2E2E2E2E2E2F5E2E2E2E2E2E2E2
310
E2E2E2E2E2E2E2E2F5E2E2E2E2E2E2E2E2E2E2E2E2E2E2E2E2E2E2E2E2E2E2E2E2E2E2E2E2E2E2E2E2E2E2E2E2E2E2E2E2E2E2E2E2E2E2E2E2E2E2E2E2E2E2E2E2E2E2E2E2E2E2E2E2E2E2E2E2E2E2E2E2E2E2E2E2E2E2E2E2E2E2E2E2E2E2E2E2E2E2E2E2E2E2E2E2E2E2E2E2E2E2E2E2E2E2E2E2E2E2E2E2E2E2E2E2E2E2
310
E2E2E2E2F5E2E2E2E2E2E2E2E2E2E2E2E2E2E2E2F5E2E2E2E2E2E2E2E2E2E2E2F5F5E2E2E2E2E2E2E2E2E2E2E2F5E2E2E2E2E2E2E2E2E2E2E2E2E2E2E2F5E2E2E2E2E2E2E2E2E2E2E2E2E2E2E2E2E2E2E2E2E2E2E2E2E2E2E2E2E2E2E2E2E2E2E2E2E2E2E2E2E2E2E2E2E2E2E2E2E2E2E2E2E2E2E2E2E2E2E2E2E2E2E2E2E2
310
E2E2E2E2E2E2E2E2E2E2E2E2E2E2E2E2E2E2E2E2E2E2E2E2E2E2E2E2E2E2E2E2E2E2E2E2E2E2E2E2E2E2E2E2E2E2E2E2E2E2E2E2E2E2E2E2E2F5E2E2E2E2E2E2E2E2E2E2E2E2E2E2E2F5E2E2E2E2E2E2E2E2E2E2E2F5F5E2E2E2E2E2E2E2E2E2E2E2F5E2E2E2E2E2E2E2E2E2E2E2E2E2E2E2F5E2E2E2E2E2E2E2E2E2E2E2E2
310
E2E2E2E2E2E2E2E2E2E2E2E2E2E2E2E2E2E2E2E2E2E2E2E2E2E2E2E2E2E2E2E2E2E2E2E2E2E2E2E2E2E2E2E2E2E2E2E2E2E2E2E2E2E2E2E2E2E2E2E2E2E2E2E2E2E2E2E2E2E2E2E2E2E2E2E2E2E2E2E2E2E2E2E2E2E2E2E2E2E2E2E2E2E2E2E2E2E2E2E2E2E2E2E2E2E2E2E2E2E2F5E2E2E2E2E2E2E2E2E2E2E2E2E2E2E2F5
310
E2E2E2E2E2E2E2E2E2E2E2F5F5E2E2E2E2E2E2E2E2E2E2E2F5E2E2E2E2E2E2E2E2E2E2E2E2E2E2E2F5E2E2E2E2E2E2E2E2E2E2E2E2E2E2E2E2E2E2E2E2E2E2E2E2E2E2E2E2E2E2E2E2E2E2E2E2E2E2E2E2E2E2E2E2E2E2E2E2E2E2E2E2E2E2E2E2E2E2E2E2E2E2E2E2E2E2E2E2E2E2E2E2E2E2E2E2E2E2E2E2E2E2E2E2E2E2
310
E2E2E2E2E2E2E2E2E2E2E2E2E2E2E2E2E2E2E2E2E2E2E2E2E2E2E2E2E2E2E2E2E2E2E2E2F5E2E2E2E2E2E2E2E2E2E2E2E2E2E2E2F5E2E2E2E2E2E2E2E2E2E2E2F5F5E2E2E2E2E2E2E2E2E2E2E2F5E2E2E2E2E2E2E2E2E2E2E2E2E2E2E2F5E2E2E2E2E2E2E2E2E2E2E2E2E2E2E2E2E2E2E2E2E2E2E2E2E2E2E2E2E2E2E2E2E2
310
E2E2E2E2E2E2E2E2E2E2E2E2E2E2E2E2E2E2E2E2E2E2E2E2E2E2E2E2E2E2E2E2E2E2E2E2E2E2E2E2E2E2E2E2E2E2E2E2E2E2E2E2E2E2E2E2E2E2E2E2E2E2E2E2E2E2E2E2E2E2E2E2E2E2E2E2E2E2E2E2E2E2E2E2E2E2E2E2E2F5E2E2E2E2E2E2E2E2E2E2E2E2E2E2E2F5E2E2E2E2E2E2E2E2E2E2E2F5F5E2E2E2E2E2E2E2E2
310
E2E2E2F5E2E2E2E2E2E2E2E2E2E2E2E2E2E2E2F5E2E2E2E2E2E2E2E2E2E2E2E2E2E2E2E2E2E2E2E2E2E2E2E2E2E2E2E2E2E2E2E2E2E2E2E2E2E2E2E2E2E2E2E2E2E2E2E2E2E2E2E2E2E2E2E2E2E2E2E2E2E2E2E2E2E2E2E2E2E2E2E2E2E2E2E2E2E2E2E2E2E2E2E2E2E2E2E2E2E2E2E2E2E2E2E2E2E2E2E2E2E2E2E2E2E2E2
310
E2E2E2E2E2E2E2E2E2E2E2E2E2E2E2F5E2E2E2E2E2E2E2E2E2E2E2E2E2E2E2F5E2E2E2E2E2E2E2E2E2E2E2F5F5E2E2E2E2E2E2E2E2E2E2E2F5E2E2E2E2E2E2E2E2E2E2E2E2E2E2E2F5E2E2E2E2E2E2E2E2E2E2E2E2E2E2E2E2E2E2E2E2E2E2E2E2E2E2E2E2E2E2E2E2E2E2E2E2E2E2E2E2E2E2E2E2E2E2E2E2E2E2E2E2E2E2
310
E2E2E2E2E2E2E2E2E2E2E2E2E2E2E2E2E2E2E2E2E2E2E2E2E2E2E2E2E2E2E2E2E2E2E2E2E2E2E2E2E2E2E2E2E2E2E2E2E2E2E2E2E2E2E2E2E2E2E2E2E2E2E2E2E2E2E2E2F5E2E2E2E2E2E2E2E2E2E2E2E2E2E2E2F5E2E2E2E2E2E2E2E2E2E2E2F5F5E2E2E2E2E2E2E2E2E2E2E2F5E2E2E2E2E2E2E2E2E2E2E2E2E2E2E2F5E2
310
E2E2E2E2E2E2E2E2E2E2E2E2E2E2E2E2E2E2E2E2E2E2E2E2E2E2E2E2E2E2E2E2E2E2E2E2E2E2E2E2E2E2E2E2E2E2E2E2E2E2E2E2E2E2E2E2E2E2E2E2E2E2E2E2E2E2E2E2E2E2E2E2E2E2E2E2E2E2E2E2E2E2E2E2E2E2E2E2E2E2E2E2E2E2E2E2E2E2E2E2E2E2E2E2E2E2E2E2E2E2E2E2E2E2E2E2E2E2E2E2E2F5E2E2E2E2E2
310
E2E2E2E2E2E2E2E2E2E2F5E2E2E2E2E2E2E2E2E2E2E2F5F5E2E2E2E2E2E2E2E2E2E2E2F5E2E2E2E2E2E2E2E2E2E2E2E2E2E2E2F5E2E2E2E2E2E2E2E2E2E2E2E2E2E2E2E2E2E2E2E2E2E2E2E2E2E2E2E2E2E2E2E2E2E2E2E2E2E2E2E2E2E2E2E2E2E2E2E2E2E2E2E2E2E2E2E2E2E2E2E2E2E2E2E2E2E2E2E2E2E2E2E2E2E2E2
310
E2E2E2E2E2E2E2E2E2E2E2E2E2E2E2E2E2E2E2E2E2E2E2E2E2E2E2E2E2E2E2E2E2E2E2E2E2E2E2E2E2E2E2E2E2E2E2F5E2E2E2E2E2E2E2E2E2E2E2E2E2E2E2F5E2E2E2E2E2E2E2E2E2E2E2F5F5E2E2E2E2E2E2E2E2E2E2E2E2E2E2E2E2E2E2E2E2E2E2E2E2E2E2E2F5E2E2E2E2E2E2E2E2E2E2E2E2E2E2E2E2E2E2E2E2E2E2
310
E2E2E2E2E2E2E2E2E2E2E2E2E2E2E2E2E2E2E2E2E2E2E2E2E2E2E2E2E2E2E2E2E2E2E2E2E2E2E2E2E2E2E2E2E2E2E2E2E2E2E2E2E2E2E2E2E2E2E2E2E2E2E2E2E2E2E2E2E2E2E2E2E2E2E2E2E2E2E2E2E2E2E2E2E2E2E2E2E2E2E2E2E2E2E2E2E2E2E2E2F5E2E2E2E2E2E2E2E2E2E2E2E2E2E2E2E2E2E2E2E2E2E2E2E2E2E2
310
E2F5F5E2E2E2E2E2E2E2E2E2E2E2E2E2E2E2E2E2E2E2E2E2E2E2E2E2E2E2F5E2E2E2E2E2E2E2E2E2E2E2E2E2E2E2E2E2E2E2E2E2E2E2E2E2E2E2E2E2E2E2E2E2E2E2E2E2E2E2E2E2E2E2E2E2E2E2E2E2E2E2E2E2E2E2E2E2E2E2E2E2E2E2E2E2E2E2E2E2E2E2E2E2E2E2E2E2E2E2E2E2E2E2E2E2E2E2E2E2E2E2E2E2E2E2E2
310
E2E2E2E2E2E2E2E2E2E2E2E2E2E2E2E2E2E2E2E2E2E2E2E2E2E2F5E2E2E2E2E2E2E2E2E2E2E2E2E2E2E2E2E2E2E2E2E2E2E2E2E2E2E2F5F5E2E2E2E2E2E2E2E2E2E2E2E2E2E2E2E2E2E2E2E2E2E2E2E2E2E2E2F5E2E2E2E2E2E2E2E2E2E2E2E2E2E2E2E2E2E2E2E2E2E2E2E2E2E2E2E2E2E2E2E2E2E2E2E2E2E2E2E2E2E2E2
310
E2E2E2E2E2E2E2E2E2E2E2E2E2E2E2E2E2E2E2E2E2E2E2E2E2E2E2E2E2E2E2E2E2E2E2E2E2E2E2E2E2E2E2E2E2E2E2E2E2E2E2E2E2E2E2E2E2E2E2E2E2E2E2E2E2E2E2E2E2E2E2E2E2E2E2E2E2E2E2F5E2E2E2E2E2E2E2E2E2E2E2E2E2E2E2E2E2E2E2E2E2E2E2E2E2E2E2F5F5E2E2E2E2E2E2E2E2E2E2E2E2E2E2E2E2E2E2
310
E2E2E2E2E2E2E2E2E2F5E2E2E2E2E2E2E2E2E2E2E2E2E2E2E2E2E2E2E2E2E2E2E2E2E2E2E2E2E2E2E2E2E2E2E2E2E2E2E2E2E2E2E2E2E2E2E2E2E2E2E2E2E2E2E2E2E2E2E2E2E2E2E2E2E2E2E2E2E2E2E2E2E2E2E2E2E2E2E2E2E2E2E2E2E2E2E2E2E2E2E2E2E2E2E2E2E2E2E2E2E2E2E2E2E2E2E2E2E2E2E2E2E2E2E2E2E2
310
E2E2E2E2E2F5E2E2E2E2E2E2E2E2E2E2E2E2E2E2E2E2E2E2E2E2E2E2E2E2E2E2E2F5F5E2E2E2E2E2E2E2E2E2E2E2E2E2E2E2E2E2E2E2E2E2E2E2E2E2E2E2F5E2E2E2E2E2E2E2E2E2E2E2E2E2E2E2E2E2E2E2E2E2E2E2E2E2E2E2E2E2E2E2E2E2E2E2E2E2E2E2E2E2E2E2E2E2E2E2E2E2E2E2E2E2E2E2E2E2E2E2E2E2E2E2E2
310
E2E2E2E2E2E2E2E2E2E2E2E2E2E2E2E2E2E2E2E2E2E2E2E2E2E2E2E2E2E2E2E2E2E2E2E2E2E2E2E2E2E2E2E2E2E2E2E2E2E2E2E2E2E2E2E2E2E2F5E2E2E2E2E2E2E2E2E2E2E2E2E2E2E2E2E2E2E2E2E2E2E2E2E2E2E2F5F5E2E2E2E2E2E2E2E2E2E2E2E2E2E2E2E2E2E2E2E2E2E2E2E2E2E2E2F5E2E2E2E2E2E2E2E2E2E2E2
310
E2E2E2E2E2E2E2E2E2E2E2E2E2E2E2E2E2E2E2E2E2E2E2E2E2E2E2E2E2E2E2E2E2E2E2E2E2E2E2E2E2E2E2E2E2E2E2E2E2E2E2E2E2E2E2E2E2E2E2E2E2E2E2E2E2E2E2E2E2E2E2E2E2E2E2E2E2E2E2E2E2E2E2E2E2E2E2E2E2E2E2E2E2E2E2E2E2E2E2E2E2E2E2E2E2E2E2E2E2E2E2F5E2E2E2E2E2E2E2E2E2E2E2E2E2E2E2
310
E2E2E2E2E2E2E2E2E2E2E2E2F5F5E2E2E2E2E2E2E2E2E2E2E2E2E2E2E2E2E2E2E2E2E2E2E2E2E2E2E2F5E2E2E2E2E2E2E2E2E2E2E2E2E2E2E2E2E2E2E2E2E2E2E2E2E2E2E2E2E2E2E2E2E2E2E2E2E2E2E2E2E2E2E2E2E2E2E2E2E2E2E2E2E2E2E2E2E2E2E2E2E2E2E2E2E2E2E2E2E2E2E2E2E2E2E2E2E2E2E2E2E2E2E2E2E2
310
E2E2E2E2E2E2E2E2E2E2E2E2E2E2E2E2E2E2E2E2E2E2E2E2E2E2E2E2E2E2E2E2E2E2E2E2E2F5E2E2E2E2E2E2E2E2E2E2E2E2E2E2E2E2E2E2E2E2E2E2E2E2E2E2E2F5F5E2E2E2E2E2E2E2E2E2E2E2E2E2E2E2E2E2E2E2E2E2E2E2E2E2E2E2F5E2E2E2E2E2E2E2E2E2E2E2E2E2E2E2E2E2E2E2E2E2E2E2E2E2E2E2E2E2E2E2E2
310
E2E2E2E2E2E2E2E2E2E2E2E2E2E2E2E2E2E2E2E2E2E2E2E2E2E2E2E2E2E2E2E2E2E2E2E2E2E2E2E2E2E2E2E2E2E2E2E2E2E2E2E2E2E2E2E2E2E2E2E2E2E2E2E2E2E2E2E2E2E2E2E2E2E2E2E2E2E2E2E2E2E2E2E2E2E2E2E2E2E2F5E2E2E2E2E2E2E2E2E2E2E2E2E2E2E2E2E2E2E2E2E2E2E2E2E2E2E2F5F5E2E2E2E2E2E2E2
310
E2E2E2E2E2E2E2E2E2E2E2E2E2E2E2E2E2E2E2E2F5E2E2E2E2E2E2E2E2E2E2E2E2E2E2E2E2E2E2E2E2E2E2E2E2E2E2E2E2E2E2E2E2E2E2E2E2E2E2E2E2E2E2E2E2E2E2E2E2E2E2E2E2E2E2E2E2E2E2E2E2E2E2E2E2E2E2E2E2E2E2E2E2E2E2E2E2E2E2E2E2E2E2E2E2E2E2E2E2E2E2E2E2E2E2E2E2E2E2E2E2E2E2E2E2E2E2
310
E2E2E2E2E2E2E2E2E2E2E2E2E2E2E2E2F5E2E2E2E2E2E2E2E2E2E2E2E2E2E2E2E2E2E2E2E2E2E2E2E2E2E2E2F5F5E2E2E2E2E2E2E2E2E2E2E2F5E2E2E2E2E2E2E2E2E2E2E2E2E2E2E2F5E2E2E2E2E2E2E2E2E2E2E2E2E2E2E2E2E2E2E2E2E2E2E2E2E2E2E2E2E2E2E2E2E2E2E2E2E2E2E2E2E2E2E2E2E2E2E2E2E2E2E2E2E2
310
E2E2E2E2E2E2E2E2E2E2E2E2E2E2E2E2E2E2E2E2E2E2E2E2E2E2E2E2E2E2E2E2E2E2E2E2E2E2E2E2E2E2E2E2E2E2E2E2E2E2E2E2E2E2E2E2E2E2E2E2E2E2E2E2E2E2E2E2E2F5E2E2E2E2E2E2E2E2E2E2E2E2E2E2E2F5E2E2E2E2E2E2E2E2E2E2E2F5F5E2E2E2E2E2E2E2E2E2E2E2F5E2E2E2E2E2E2E2E2E2E2E2E2E2E2E2F5
310
E2E2E2E2E2E2E2E2E2E2E2E2E2E2E2E2E2E2E2E2E2E2E2E2E2E2E2E2E2E2E2E2E2E2E2E2E2E2E2E2E2E2E2E2E2E2E2E2E2E2E2E2E2E2E2E2E2E2E2E2E2E2E2E2E2E2E2E2E2E2E2E2E2E2E2E2E2E2E2E2E2E2E2E2E2E2E2E2E2E2E2E2E2E2E2E2E2E2E2E2E2E2E2E2E2E2E2E2E2E2E2E2E2E2E2E2E2E2E2E2E2E2F5E2E2E2E2
310
E2E2E2E2E2E2E2E2E2E2E2F5E2E2E2E2E2E2E2E2E2E2E2F5F5E2E2E2E2E2E2E2E2E2E2E2F5E2E2E2E2E2E2E2E2E2E2E2E2E2E2E2F5E2E2E2E2E2E2E2E2E2E2E2E2E2E2E2E2E2E2E2E2E2E2E2E2E2E2E2E2E2E2E2E2E2E2E2E2E2E2E2E2E2E2E2E2E2E2E2E2E2E2E2E2E2E2E2E2E2E2E2E2E2E2E2E2E2E2E2E2E2E2E2E2E2E2
310
E2E2E2E2E2E2E2E2E2E2E2E2E2E2E2E2E2E2E2E2E2E2E2E2E2E2E2E2E2E2E2E2E2E2E2E2E2E2E2E2E2E2E2E2E2E2E2E2F5E2E2E2E2E2E2E2E2E2E2E2E2E2E2E2F5E2E2E2E2E2E2E2E2E2E2E2F5F5E2E2E2E2E2E2E2E2E2E2E2F5E2E2E2E2E2E2E2E2E2E2E2E2E2E2E2F5E2E2E2E2E2E2E2E2E2E2E2E2E2E2E2E2E2E2E2E2E2
310
E2E2E2E2E2E2E2E2E2E2E2E2E2E2E2E2E2E2E2E2E2E2E2E2E2E2E2E2E2E2E2E2E2E2E2E2E2E2E2E2E2E2E2E2E2E2E2E2E2E2E2E2E2E2E2E2E2E2E2E2E2E2E2E2E2E2E2E2E2E2E2E2E2E2E2E2E2E2E2E2E2E2E2E2E2E2E2E2E2E2E2E2E2E2E2E2E2E2E2E2E2F5E2E2E2E2E2E2E2E2E2E2E2E2E2E2E2F5E2E2E2E2E2E2E2E2E2
310
E2E2F5F5E2E2E2E2E2E2E2E2E2E2E2F5E2E2E2E2E2E2E2E2E2E2E2E2E2E2E2F5E2E2E2E2E2E2E2E2E2E2E2E2E2E2E2E2E2E2E2E2E2E2E2E2E2E2E2E2E2E2E2E2E2E2E2E2E2E2E2E2E2E2E2E2E2E2E2E2E2E2E2E2E2E2E2E2E2E2E2E2E2E2E2E2E2E2E2E2E2E2E2E2E2E2E2E2E2E2E2E2E2E2E2E2E2E2E2E2E2E2E2E2E2E2E2
310
E2E2E2E2E2E2E2E2E2E2E2E2E2E2E2E2E2E2E2E2E2E2E2E2E2E2E2F5E2E2E2E2E2E2E2E2E2E2E2E2E2E2E2F5E2E2E2E2E2E2E2E2E2E2E2F5F5E2E2E2E2E2E2E2E2E2E2E2F5E2E2E2E2E2E2E2E2E2E2E2E2E2E2E2F5E2E2E2E2E2E2E2E2E2E2E2E2E2E2E2E2E2E2E2E2E2E2E2E2E2E2E2E2E2E2E2E2E2E2E2E2E2E2E2E2E2E2
310
E2E2E2E2E2E2E2E2E2E2E2E2E2E2E2E2E2E2E2E2E2E2E2E2E2E2E2E2E2E2E2E2E2E2E2E2E2E2E2E2E2E2E2E2E2E2E2E2E2E2E2E2E2E2E2E2E2E2E2E2E2E2E2E2E2E2E2E2E2E2E2E2E2E2E2E2E2E2E2E2F5E2E2E2E2E2E2E2E2E2E2E2E2E2E2E2F5E2E2E2E2E2E2E2E2E2E2E2F5F5E2E2E2E2E2E2E2E2E2E2E2F5E2E2E2E2E2
310
E2E2E2E2E2E2E2E2E2E2F5E2E2E2E2E2E2E2E2E2E2E2E2E2E2E2E2E2E2E2E2E2E2E2E2E2E2E2E2E2E2E2E2E2E2E2E2E2E2E2E2E2E2E2E2E2E2E2E2E2E2E2E2E2E2E2E2E2E2E2E2E2E2E2E2E2E2E2E2E2E2E2E2E2E2E2E2E2E2E2E2E2E2E2E2E2E2E2E2E2E2E2E2E2E2E2E2E2E2E2E2E2E2E2E2E2E2E2E2E2E2E2E2E2E2E2E2
310
E2E2E2E2E2E2F5E2E2E2E2E2E2E2E2E2E2E2E2E2E2E2F5E2E2E2E2E2E2E2E2E2E2E2F5F5E2E2E2E2E2E2E2E2E2E2E2F5E2E2E2E2E2E2E2E2E2E2E2E2E2E2E2F5E2E2E2E2E2E2E2E2E2E2E2E2E2E2E2E2E2E2E2E2E2E2E2E2E2E2E2E2E2E2E2E2E2E2E2E2E2E2E2E2E2E2E2E2E2E2E2E2E2E2E2E2E2E2E2E2E2E2E2E2E2E2E2
310
E2E2E2E2E2E2E2E2E2E2E2E2E2E2E2E2E2E2E2E2E2E2E2E2E2E2E2E2E2E2E2E2E2E2E2E2E2E2E2E2E2E2E2E2E2E2E2E2E2E2E2E2E2E2E2E2E2E2E2F5E2E2E2E2E2E2E2E2E2E2E2E2E2E2E2F5E2E2E2E2E2E2E2E2E2E2E2F5F5E2E2E2E2E2E2E2E2E2E2E2F5E2E2E2E2E2E2E2E2E2E2E2E2E2E2E2F5E2E2E2E2E2E2E2E2E2E2
310
E2E2E2E2E2E2E2E2E2E2E2E2E2E2E2E2E2E2E2E2E2E2E2E2E2E2E2E2E2E2E2E2E2E2E2E2E2E2E2E2E2E2E2E2E2E2E2E2E2E2E2E2E2E2E2E2E2E2E2E2E2E2E2E2E2E2E2E2E2E2E2E2E2E2E2E2E2E2E2E2E2E2E2E2E2E2E2E2E2E2E2E2E2E2E2E2E2E2E2E2E2E2E2E2E2E2E2E2E2E2E2E2F5E2E2E2E2E2E2E2E2E2E2E2E2E2E2
310
E2F5E2E2E2E2E2E2E2E2E2E2E2F5F5E2E2E2E2E2E2E2E2E2E2E2F5E2E2E2E2E2E2E2E2E2E2E2E2E2E2E2F5E2E2E2E2E2E2E2E2E2E2E2E2E2E2E2E2E2E2E2E2E2E2E2E2E2E2E2E2E2E2E2E2E2E2E2E2E2E2E2E2E2E2E2E2E2E2E2E2E2E2E2E2E2E2E2E2E2E2E2E2E2E2E2E2E2E2E2E2E2E2E2E2E2E2E2E2E2E2E2E2E2E2E2E2
310
E2E2E2E2E2E2E2E2E2E2E2E2E2E2E2E2E2E2E2E2E2E2E2E2E2E2E2E2E2E2E2E2E2E2E2E2E2E2F5E2E2E2E2E2E2E2E2E2E2E2E2E2E2E2F5E2E2E2E2E2E2E2E2E2E2E2F5F5E2E2E2E2E2E2E2E2E2E2E2F5E2E2E2E2E2E2E2E2E2E2E2E2E2E2E2F5E2E2E2E2E2E2E2E2E2E2E2E2E2E2E2E2E2E2E2E2E2E2E2E2E2E2E2E2E2E2E2
310
E2E2E2E2E2E2E2E2E2E2E2E2E2E2E2E2E2E2E2E2E2E2E2E2E2E2E2E2E2E2E2E2E2E2E2E2E2E2E2E2E2E2E2E2E2E2E2E2E2E2E2E2E2E2E2E2E2E2E2E2E2E2E2E2E2E2E2E2E2E2E2E2E2E2E2E2E2E2E2E2E2E2E2E2E2E2E2E2E2E2E2F5E2E2E2E2E2E2E2E2E2E2E2E2E2E2E2F5E2E2E2E2E2E2E2E2E2E2E2F5F5E2E2E2E2E2E2
310
E2E2E2E2E2F5E2E2E2E2E2E2E2E2E2E2E2E2E2E2E2F5E2E2E2E2E2E2E2E2E2E2E2E2E2E2E2E2E2E2E2E2E2E2E2E2E2E2E2E2E2E2E2E2E2E2E2E2E2E2E2E2E2E2E2E2E2E2E2E2E2E2E2E2E2E2E2E2E2E2E2E2E2E2E2E2E2E2E2E2E2E2E2E2E2E2E2E2E2E2E2E2E2E2E2E2E2E2E2E2E2E2E2E2E2E2E2E2E2E2E2E2E2E2E2E2E2
310
E2E2E2E2E2E2E2E2E2E2E2E2E2E2E2E2E2F5E2E2E2E2E2E2E2E2E2E2E2E2E2E2E2F5E2E2E2E2E2E2E2E2E2E2E2F5F5E2E2E2E2E2E2E2E2E2E2E2F5E2E2E2E2E2E2E2E2E2E2E2E2E2E2E2F5E2E2E2E2E2E2E2E2E2E2E2E2E2E2E2E2E2E2E2E2E2E2E2E2E2E2E2E2E2E2E2E2E2E2E2E2E2E2E2E2E2E2E2E2E2E2E2E2E2E2E2E2
310
E2E2E2E2E2E2E2E2E2E2E2E2E2E2E2E2E2E2E2E2E2E2E2E2E2E2E2E2E2E2E2E2E2E2E2E2E2E2E2E2E2E2E2E2E2E2E2E2E2E2E2E2E2E2E2E2E2E2E2E2E2E2E2E2E2E2E2E2E2E2F5E2E2E2E2E2E2E2E2E2E2E2E2E2E2E2F5E2E2E2E2E2E2E2E2E2E2E2F5F5E2E2E2E2E2E2E2E2E2E2E2F5E2E2E2E2E2E2E2E2E2E2E2E2E2E2E2
310
F5E2E2E2E2E2E2E2E2E2E2E2E2E2E2E2E2E2E2E2E2E2E2E2E2E2E2E2E2E2E2E2E2E2E2E2E2E2E2E2E2E2E2E2E2E2E2E2E2E2E2E2E2E2E2E2E2E2E2E2E2E2E2E2E2E2E2E2E2E2E2E2E2E2E2E2E2E2E2E2E2E2E2E2E2E2E2E2E2E2E2E2E2E2E2E2E2E2E2E2E2E2E2E2E2E2E2E2E2E2E2E2E2E2E2E2E2E2E2E2E2E2E2F5E2E2E2
310
E2E2E2E2E2E2E2E2E2E2E2E2F5E2E2E2E2E2E2E2E2E2E2E2F5F5E2E2E2E2E2E2E2E2E2E2E2F5E2E2E2E2E2E2E2E2E2E2E2E2E2E2E2F5E2E2E2E2E2E2E2E2E2E2E2E2E2E2E2E2E2E2E2E2E2E2E2E2E2E2E2E2E2E2E2E2E2E2E2E2E2E2E2E2E2E2E2E2E2E2E2E2E2E2E2E2E2E2E2E2E2E2E2E2E2E2E2E2E2E2E2E2E2E2E2E2E2
310
E2E2E2E2E2E2E2E2E2E2E2E2E2E2E2E2E2E2E2E2E2E2E2E2E2E2E2E2E2E2E2E2E2E2E2E2E2E2E2E2E2E2E2E2E2E2E2E2E2F5E2E2E2E2E2E2E2E2E2E2E2E2E2E2E2F5E2E2E2E2E2E2E2E2E2E2E2F5F5E2E2E2E2E2E2E2E2E2E2E2E2E2E2E2E2E2E2E2E2E2E2E2E2E2E2E2F5E2E2E2E2E2E2E2E2E2E2E2E2E2E2E2E2E2E2E2E2
310
E2E2E2E2E2E2E2E2E2E2E2E2E2E2E2E2E2E2E2E2E2E2E2E2E2E2E2E2E2E2E2E2E2E2E2E2E2E2E2E2E2E2E2E2E2E2E2E2E2E2E2E2E2E2E2E2E2E2E2E2E2E2E2E2E2E2E2E2E2E2E2E2E2E2E2E2E2E2E2E2E2E2E2E2E2E2E2E2E2E2E2E2E2E2E2E2E2E2E2E2E2E2F5E2E2E2E2E2E2E2E2E2E2E2E2E2E2E2E2E2E2E2E2E2E2E2E2
310
E2E2E2F5F5E2E2E2E2E2E2E2E2E2E2E2E2E2E2E2E2E2E2E2E2E2E2E2E2E2E2E2F5E2E2E2E2E2E2E2E2E2E2E2E2E2E2E2E2E2E2E2E2E2E2E2E2E2E2E2E2E2E2E2E2E2E2E2E2E2E2E2E2E2E2E2E2E2E2E2E2E2E2E2E2E2E2E2E2E2E2E2E2E2E2E2E2E2E2E2E2E2E2E2E2E2E2E2E2E2E2E2E2E2E2E2E2E2E2E2E2E2E2E2E2E2E2
310
E2E2E2E2E2E2E2E2E2E2E2E2E2E2E2E2E2E2E2E2E2E2E2E2E2E2E2E2F5E2E2E2E2E2E2E2E2E2E2E2E2E2E2E2E2E2E2E2E2E2E2E2E2E2E2E2F5F5E2E2E2E2E2E2E2E2E2E2E2E2E2E2E2E2E2E2E2E2E2E2E2E2E2E2E2F5E2E2E2E2E2E2E2E2E2E2E2E2E2E2E2E2E2E2E2E2E2E2E2E2E2E2E2E2E2E2E2E2E2E2E2E2E2E2E2E2E2
310
E2E2E2E2E2E2E2E2E2E2E2E2E2E2E2E2E2E2E2E2E2E2E2E2E2E2E2E2E2E2E2E2E2E2E2E2E2E2E2E2E2E2E2E2E2E2E2E2E2E2E2E2E2E2E2E2E2E2E2E2E2E2E2E2E2E2E2E2E2E2E2E2E2E2E2E2E2E2E2E2E2F5E2E2E2E2E2E2E2E2E2E2E2E2E2E2E2E2E2E2E2E2E2E2E2E2E2E2E2F5F5E2E2E2E2E2E2E2E2E2E2E2E2E2E2E2E2
310
E2E2E2E2E2E2E2E2E2E2E2F5F5F5F5F5F5F5F5F5F5F5F5F5F5F5F5F5F5F5F5F5F5F5F5F5F5F5F5F5F5F5F5F5F5F5F5F5F5F5F5F5F5F5F5F5F5F5F5F5F5F5F5F5F5F5F5F5F5F5F5F5F5F5F5F5F5F5F5F5F5F5F5F5F5F5F5F5F5F5F5F5F5F5F5F5F5F5F5F5F5F5F5F5F5F5F5F5F5F5F5F5F5F5F5F5F5F5F5F5F5F5F5F5F5F5F5
310
F5F5F5F5F5F5F5F5E2E2E2E2E2E2E2E2E2E2E2E2E2E2E2E2E2E2E2E2E2E2E2E2E2E2E2F5F5E2E2E2E2E2E2E2E2E2E2E2E2E2E2E2E2E2E2E2E2E2E2E2E2E2E2E2E2E2E2E2E2E2E2E2E2E2E2E2E2E2E2E2E2E2E2E2E2E2E2E2E2E2E2E2E2E2E2E2E2E2E2E2E2E2E2E2E2E2E2E2E2E2E2E2E2E2E2E2E2E2E2E2E2E2E2E2E2E2E2
310
E2E2E2E2E2E2E2E2E2E2E2E2E2E2E2E2E2E2E2E2E2E2E2E2E2E2E2E2E2E2E2E2E2E2E2E2E2E2E2E2E2E2E2E2E2E2E2E2E2E2E2E2E2E2E2E2E2E2E2E2E2E2E2E2E2E2E2E2E2E2E2E2E2E2E2E2E2E2E2E2E2E2E2E2E2E2E2E2F5F5E2E2E2E2E2E2E2E2E2E2E2E2E2E2E2E2E2E2E2E2E2E2E2E2E2E2E2E2E2E2E2E2E2E2E2E2E2
310
E2E2E2E2E2E2E2E2E2E2E2E2E2E2E2E2E2E2E2E2E2E2E2E2E2E2E2E2E2E2E2E2E2E2E2E2E2E2E2E2E2E2E2E2E2E2E2E2E2E2E2E2E2E2E2E2E2E2E2E2E2E2E2E2E2E2E2E2E2E2E2E2E2E2E2E2E2E2E2E2E2E2E2E2E2E2E2E2E2E2E2E2E2E2E2E2E2E2E2E2E2E2E2E2E2E2E2E2E2E2E2E2E2E2E2E2E2E2E2E2E2E2E2E2E2E2E2
310
E2E2E2E2E2E2E2E2E2E2E2E2E2E2F5F5E2E2E2E2E2E2E2E2E2E2E2E2E2E2E2E2E2E2E2E2E2E2E2E2E2E2E2E2E2E2E2E2E2E2E2E2E2E2E2E2E2E2E2E2E2E2E2E2E2E2E2E2E2E2E2E2E2E2E2E2E2E2E2E2E2E2E2E2E2E2E2E2E2E2E2E2E2E2E2E2E2E2E2E2E2E2E2E2E2E2E2E2E2E2E2E2E2E2E2E2E2E2E2E2E2E2E2E2E2E2E2
310
E2E2E2E2E2E2E2E2E2E2E2E2E2E2E2E2E2E2E2E2E2E2E2E2E2E2E2E2E2E2E2E2E2E2E2E2E2E2E2E2E2E2E2E2E2E2E2E2E2E2E2E2E2E2E2E2E2E2E2E2E2E2E2E2E2E2E2F5F5E2E2E2E2E2E2E2E2E2E2E2E2E2E2E2E2E2E2E2E2E2E2E2E2E2E2E2E2E2E2E2E2E2E2E2E2E2E2E2E2E2E2E2E2E2E2E2E2E2E2E2E2E2E2E2E2E2E2
310
E2E2E2E2E2E2E2E2E2E2E2E2E2E2E2E2E2E2E2E2E2E2E2E2E2E2E2E2E2E2E2E2E2E2E2E2E2E2E2E2E2E2E2E2E2E2E2E2E2E2E2E2E2E2E2E2E2E2E2E2E2E2E2E2E2E2E2E2E2E2E2E2E2E2E2E2E2E2E2E2E2E2E2E2E2E2E2E2E2E2E2E2E2E2E2E2E2E2E2E2E2E2E2E2E2E2E2E2E2E2E2E2E2E2E2E2E2E2E2E2F5F5E2E2E2E2E2
310
E2E2E2E2E2E2F5E2E2E2E2E2E2E2E2E2E2E2E2E2E2E2E2E2E2E2E2E2E2E2E2E2E2E2E2E2E2E2E2E2E2E2E2E2E2E2E2E2E2E2E2E2E2E2E2E2E2E2E2E2E2E2E2E2E2E2E2E2E2E2E2E2E2E2E2E2E2E2E2E2E2E2E2E2E2E2E2E2E2E2E2E2E2E2E2E2E2E2E2E2E2E2E2E2E2E2E2E2E2E2E2E2E2E2E2E2E2E2E2E2E2E2E2E2E2E2E2
310
E2E2E2E2E2E2E2E2E2E2E2E2E2E2E2E2E2E2E2E2E2E2E2E2E2E2E2E2E2E2E2E2E2E2F5E2E2E2E2E2E2E2E2E2E2E2F5F5E2E2E2E2E2E2E2E2E2E2E2F5E2E2E2E2E2E2E2E2E2E2E2E2E2E2E2E2E2E2E2E2E2E2E2E2E2E2E2E2E2E2E2E2E2E2E2E2E2E2E2E2E2E2E2E2E2E2E2E2E2E2E2E2E2E2E2E2E2E2E2E2E2E2E2E2E2E2E2
310
E2E2E2E2E2E2E2E2E2E2E2E2E2E2E2E2E2E2E2E2E2E2E2E2E2E2E2E2E2E2E2E2E2E2E2E2E2E2E2E2E2E2E2E2E2E2E2E2E2E2E2E2E2E2E2E2E2E2E2E2E2E2E2E2E2E2E2E2E2E2E2E2E2E2E2E2E2E2E2E2E2E2E2E2E2E2E2F5E2E2E2E2E2E2E2E2E2E2E2F5F5E2E2E2E2E2E2E2E2E2E2E2F5E2E2E2E2E2E2E2E2E2E2E2E2E2E2
310
E2E2E2E2E2E2E2E2E2E2E2E2E2E2E2E2E2E2E2E2E2E2E2E2E2E2E2E2E2E2E2E2E2E2E2E2E2E2E2E2E2E2E2E2E2E2E2E2E2E2E2E2E2E2E2E2E2E2E2E2E2E2E2E2E2E2E2E2E2E2E2E2E2E2E2E2E2E2E2E2E2E2E2E2E2E2E2E2E2E2E2E2E2E2E2E2E2E2E2E2E2E2E2E2E2E2E2E2E2E2E2E2E2E2E2E2E2E2E2E2E2E2E2E2E2E2E2
310
E2E2E2E2E2E2E2E2E2E2E2E2E2F5E2E2E2E2E2E2E2E2E2E2E2F5F5E2E2E2E2E2E2E2E2E2E2E2F5E2E2E2E2E2E2E2E2E2E2E2E2E2E2E2E2E2E2E2E2E2E2E2E2E2E2E2E2E2E2E2E2E2E2E2E2E2E2E2E2E2E2E2E2E2E2E2E2E2E2E2E2E2E2E2E2E2E2E2E2E2E2E2E2E2E2E2E2E2E2E2E2E2E2E2E2E2E2E2E2E2E2E2E2E2E2E2E2
310
E2E2E2E2E2E2E2E2E2E2E2E2E2E2E2E2E2E2E2E2E2E2E2E2E2E2E2E2E2E2E2E2E2E2E2E2E2E2E2E2E2E2E2E2E2E2E2E2E2E2E2E2E2E2E2E2E2E2E2E2E2E2E2E2E2E2F5E2E2E2E2E2E2E2E2E2E2E2F5F5E2E2E2E2E2E2E2E2E2E2E2F5E2E2E2E2E2E2E2E2E2E2E2E2E2E2E2E2E2E2E2E2E2E2E2E2E2E2E2E2E2E2E2E2E2E2E2
310
E2E2E2E2E2E2E2E2E2E2E2E2E2E2E2E2E2E2E2E2E2E2E2E2E2E2E2E2E2E2E2E2E2E2E2E2E2E2E2E2E2E2E2E2E2E2E2E2E2E2E2E2E2E2E2E2E2E2E2E2E2E2E2E2E2E2E2E2E2E2E2E2E2E2E2E2E2E2E2E2E2E2E2E2E2E2E2E2E2E2E2E2E2E2E2E2E2E2E2E2E2E2E2E2E2E2E2E2E2E2E2E2E2E2E2E2E2E2E2F5E2E2E2E2E2E2E2
310
E2E2E2E2F5F5E2E2E2E2E2E2E2E2E2E2E2F5E2E2E2E2E2E2E2E2E2E2E2E2E2E2E2E2E2E2E2E2E2E2E2E2E2E2E2E2E2E2E2E2E2E2E2E2E2E2E2E2E2E2E2E2E2E2E2E2E2E2E2E2E2E2E2E2E2E2E2E2E2E2E2E2E2E2E2E2E2E2E2E2E2E2E2E2E2E2E2E2E2E2E2E2E2E2E2E2E2E2E2E2E2E2E2E2E2E2E2E2E2E2E2E2E2E2E2E2E2
310
E2E2E2E2E2E2E2E2E2E2E2E2E2E2E2E2E2E2E2E2E2E2E2E2E2E2E2E2E2E2E2E2E2E2E2E2E2E2E2E2E2E2E2E2E2F5E2E2E2E2E2E2E2E2E2E2E2F5F5E2E2E2E2E2E2E2E2E2E2E2F5E2E2E2E2E2E2E2E2E2E2E2E2E2E2E2E2E2E2E2E2E2E2E2E2E2E2E2E2E2E2E2E2E2E2E2E2E2E2E2E2E2E2E2E2E2E2E2E2E2E2E2E2E2E2E2E2
310
E2E2E2E2E2E2E2E2E2E2E2E2E2E2E2E2E2E2E2E2E2E2E2E2E2E2E2E2E2E2E2E2E2E2E2E2E2E2E2E2E2E2E2E2E2E2E2E2E2E2E2E2E2E2E2E2E2E2E2E2E2E2E2E2E2E2E2E2E2E2E2E2E2E2E2E2E2E2E2E2E2E2E2E2E2E2E2E2E2E2E2E2E2E2E2E2E2E2F5E2E2E2E2E2E2E2E2E2E2E2F5F5E2E2E2E2E2E2E2E2E2E2E2F5F5F5F5
310
F5F5F5F5F5E2E2E2E2E2E2E2E2E2F5F5F5F5F5F5F5F5F5F5F5F5F5F5F5F5F5E2E2E2E2E2E2E2E2E2F5F5F5F5F5F5F5F5F5F5F5F5F5F5F5F5E2E2E2E2E2E2E2E2E2E2F5F5F5F5F5F5F5F5F5F5F5F5F5F5F5F5E2E2E2E2E2E2E2E2E2E2F5F5F5F5F5F5F5F5F5F5F5F5F5F5F5F5E2E2E2E2E2E2E2E2E2F5F5F5F5F5F5F5F5F5F5
310
F5F5F5F5F5F5F5E2E2E2E2E2E2E2E2E2F5F5F5F5F5F5F5F5F5E2E2E2E2E2E2E2E2E2E2E2F5F5E2E2E2E2E2E2E2E2E2E2E2E2E2E2E2E2E2E2E2E2E2E2E2E2E2E2E2E2E2E2E2E2E2E2E2E2E2E2E2E2E2E2E2E2E2E2E2E2E2E2E2E2E2E2E2E2E2E2E2E2E2E2E2E2E2E2E2E2E2E2E2E2E2E2E2E2E2E2E2E2E2E2E2E2E2E2E2E2E2
310
E2E2E2E2E2E2E2E2E2E2E2E2E2E2E2E2E2E2E2E2E2E2E2E2E2E2E2E2E2E2E2E2E2E2E2E2E2E2E2E2E2E2E2E2E2E2E2E2E2E2E2E2E2E2E2E2E2E2E2E2E2E2E2E2E2E2E2E2E2E2E2E2E2E2E2E2E2E2E2E2E2E2E2E2E2E2E2E2E2F5F5E2E2E2E2E2E2E2E2E2E2E2E2E2E2E2E2E2E2E2E2E2E2E2E2E2E2E2E2E2E2E2E2E2E2E2E2
310
E2E2E2E2E2E2E2E2E2E2E2E2E2E2E2E2E2E2E2E2E2E2E2E2E2E2E2E2E2E2E2E2E2E2E2E2E2E2E2E2E2E2E2E2E2E2E2E2E2E2E2E2E2E2E2E2E2E2E2E2E2E2E2E2E2E2E2E2E2E2E2E2E2E2E2E2E2E2E2E2E2E2E2E2E2E2E2E2E2E2E2E2E2E2E2E2E2E2E2E2E2E2E2E2E2E2E2E2E2E2E2E2E2E2E2E2E2E2E2E2E2E2E2E2E2E2E2
310
E2E2E2E2E2E2E2E2E2E2E2E2E2E2E2F5F5E2E2E2E2E2E2E2E2E2E2E2E2E2E2E2E2E2E2E2E2E2E2E2E2E2E2E2E2E2E2E2E2E2E2E2E2E2E2E2E2E2E2E2E2E2E2E2E2E2E2E2E2E2E2E2E2E2E2E2E2E2E2E2E2E2E2E2E2E2E2E2E2E2E2E2E2E2E2E2E2E2E2E2E2E2E2E2E2E2E2E2E2E2E2E2E2E2E2E2E2E2E2E2E2E2E2E2E2E2E2
310
E2E2E2E2E2E2E2E2E2E2E2E2E2E2E2E2E2E2E2E2E2E2E2E2E2E2E2E2E2E2E2E2E2E2E2E2E2E2E2E2E2E2E2E2E2E2E2E2E2E2E2E2E2E2E2E2E2E2E2E2E2E2E2E2E2E2E2E2F5F5F5F5F5F5F5F5F5F5F5F5F5F5F5F5F5F5F5F5F5F5F5F5F5F5F5F5F5F5F5F5F5F5F5F5F5F5F5F5F5F5F5F5F5F5F5F5F5F5F5F5F5F5F5F5F5F5F5
310
F5F5F5F5F5F5F5F5F5F5F5F5F5F5F5F5F5F5F5F5F5F5F5F5F5F5F5F5F5F5F5F5F5F5F5F5F5F5F5F5F5F5F5F5F5F5F5F5F5F5F5F5F5F5F5F5F5F5F5F5F5F5F5F5F5F5F5F5F5F5F5F5F5F5F5F5F5F5F5F5F5F5F5F5F5F5F5F5F5F5F5F5F5F5F5F5F5F5F5F5F5F5F5F5F5F5F5F5F5F5F5F5F5F5F5F5F5F5F5F5F5F5EFEFEFEFEF
310
EFEFEFEFEFEFEFEFEFEFEFEFEFEFEFEFEFEFEFEFEFEFEFEFEFEFEFEFEFEFEFEFEFEFEFEFEFEFEFEFEFEFEFEFEFEFEFEFEFEFEFEFEFEFEFEFEFEFEFEFEFEFEFEFEFEFEFEFEFEFEFEFEFEFEFEFEFEFEFEFEFEFEFEFEFEFEFEFEFEFEFEFEFEFEFEFEFEFEFEFEFEFEFEFEFEFEFEFEFEFEFEFEFEFEFEFEFEFEFEFEFEFEFEFEFEFEF
310
EFEFEFEFEFEFEFEFEFEFEFEFEFEFEFEFEFEFEFEFEFEFEFEFEFEFEFEFEFEFEFEFEFEFEFEFEFEFEFEFEFEFEFEFEFEFEFEF
  0
ENDSEC
  0
EOF
