  0
SECTION
  2
HEADER
  9
$ACADVER
  1
AC1021
  9
$ACADMAINTVER
 70
     1
  9
$DWGCODEPAGE
  3
ANSI_1252
  9
$LASTSAVEDBY
  1
BJB
  9
$INSBASE
 10
-6441.848698920317
 20
-26136.698273883
 30
0.0
  9
$EXTMIN
 10
-7845.949133114537
 20
-26137.71828847059
 30
-0.0000000000000058
  9
$EXTMAX
 10
-6317.83393211964
 20
-24635.24149711849
 30
0.0000000000000104
  9
$LIMMIN
 10
0.0
 20
0.0
  9
$LIMMAX
 10
420.0
 20
297.0
  9
$ORTHOMODE
 70
     1
  9
$REGENMODE
 70
     1
  9
$FILLMODE
 70
     1
  9
$QTEXTMODE
 70
     0
  9
$MIRRTEXT
 70
     0
  9
$LTSCALE
 40
100.0
  9
$ATTMODE
 70
     1
  9
$TEXTSIZE
 40
536.1425458167722
  9
$TRACEWID
 40
1.0
  9
$TEXTSTYLE
  7
Standard
  9
$CLAYER
  8
Access .3
  9
$CELTYPE
  6
ByLayer
  9
$CECOLOR
 62
   256
  9
$CELTSCALE
 40
1.0
  9
$DISPSILH
 70
     0
  9
$DIMSCALE
 40
10.0
  9
$DIMASZ
 40
2.5
  9
$DIMEXO
 40
1.0
  9
$DIMDLI
 40
1.0
  9
$DIMRND
 40
0.0
  9
$DIMDLE
 40
2.0
  9
$DIMEXE
 40
2.0
  9
$DIMTP
 40
0.0
  9
$DIMTM
 40
0.0
  9
$DIMTXT
 40
1.8
  9
$DIMCEN
 40
2.5
  9
$DIMTSZ
 40
0.0
  9
$DIMTOL
 70
     0
  9
$DIMLIM
 70
     0
  9
$DIMTIH
 70
     0
  9
$DIMTOH
 70
     0
  9
$DIMSE1
 70
     0
  9
$DIMSE2
 70
     0
  9
$DIMTAD
 70
     1
  9
$DIMZIN
 70
     9
  9
$DIMBLK
  1

  9
$DIMASO
 70
     1
  9
$DIMSHO
 70
     1
  9
$DIMPOST
  1

  9
$DIMAPOST
  1

  9
$DIMALT
 70
     0
  9
$DIMALTD
 70
     4
  9
$DIMALTF
 40
0.0394
  9
$DIMLFAC
 40
1.0
  9
$DIMTOFL
 70
     0
  9
$DIMTVP
 40
0.0
  9
$DIMTIX
 70
     0
  9
$DIMSOXD
 70
     0
  9
$DIMSAH
 70
     1
  9
$DIMBLK1
  1
ARCHTICK
  9
$DIMBLK2
  1
ARCHTICK
  9
$DIMSTYLE
  2
Access
  9
$DIMCLRD
 70
   256
  9
$DIMCLRE
 70
   256
  9
$DIMCLRT
 70
   256
  9
$DIMTFAC
 40
1.0
  9
$DIMGAP
 40
0.9
  9
$DIMJUST
 70
     0
  9
$DIMSD1
 70
     0
  9
$DIMSD2
 70
     0
  9
$DIMTOLJ
 70
     1
  9
$DIMTZIN
 70
     0
  9
$DIMALTZ
 70
     0
  9
$DIMALTTZ
 70
     0
  9
$DIMUPT
 70
     0
  9
$DIMDEC
 70
     0
  9
$DIMTDEC
 70
     0
  9
$DIMALTU
 70
     8
  9
$DIMALTTD
 70
     4
  9
$DIMTXSTY
  7
Standard
  9
$DIMAUNIT
 70
     0
  9
$DIMADEC
 70
     0
  9
$DIMALTRND
 40
0.0
  9
$DIMAZIN
 70
     0
  9
$DIMDSEP
 70
    46
  9
$DIMATFIT
 70
     3
  9
$DIMFRAC
 70
     0
  9
$DIMLDRBLK
  1

  9
$DIMLUNIT
 70
     2
  9
$DIMLWD
 70
    -2
  9
$DIMLWE
 70
    -2
  9
$DIMTMOVE
 70
     2
  9
$DIMFXL
 40
2.0
  9
$DIMFXLON
 70
     0
  9
$DIMJOGANG
 40
1.570796326794896
  9
$DIMTFILL
 70
     0
  9
$DIMTFILLCLR
 70
     0
  9
$DIMARCSYM
 70
     0
  9
$DIMLTYPE
  6

  9
$DIMLTEX1
  6

  9
$DIMLTEX2
  6

  9
$LUNITS
 70
     2
  9
$LUPREC
 70
     4
  9
$SKETCHINC
 40
1.0
  9
$FILLETRAD
 40
0.0
  9
$AUNITS
 70
     0
  9
$AUPREC
 70
     0
  9
$MENU
  1
.
  9
$ELEVATION
 40
0.0
  9
$PELEVATION
 40
0.0
  9
$THICKNESS
 40
0.0
  9
$LIMCHECK
 70
     0
  9
$CHAMFERA
 40
0.0
  9
$CHAMFERB
 40
0.0
  9
$CHAMFERC
 40
0.0
  9
$CHAMFERD
 40
0.0
  9
$SKPOLY
 70
     0
  9
$TDCREATE
 40
2453960.715830440
  9
$TDUCREATE
 40
2453960.299163773
  9
$TDUPDATE
 40
2455343.869133380
  9
$TDUUPDATE
 40
2455343.452466713
  9
$TDINDWG
 40
0.5858094676
  9
$TDUSRTIMER
 40
0.5858094676
  9
$USRTIMER
 70
     1
  9
$ANGBASE
 50
0.0
  9
$ANGDIR
 70
     0
  9
$PDMODE
 70
     0
  9
$PDSIZE
 40
0.0
  9
$PLINEWID
 40
0.0
  9
$SPLFRAME
 70
     0
  9
$SPLINETYPE
 70
     6
  9
$SPLINESEGS
 70
     8
  9
$HANDSEED
  5
208
  9
$SURFTAB1
 70
     6
  9
$SURFTAB2
 70
     6
  9
$SURFTYPE
 70
     6
  9
$SURFU
 70
     6
  9
$SURFV
 70
     6
  9
$UCSBASE
  2

  9
$UCSNAME
  2

  9
$UCSORG
 10
0.0
 20
0.0
 30
0.0
  9
$UCSXDIR
 10
1.0
 20
0.0
 30
0.0
  9
$UCSYDIR
 10
0.0
 20
1.0
 30
0.0
  9
$UCSORTHOREF
  2

  9
$UCSORTHOVIEW
 70
     0
  9
$UCSORGTOP
 10
0.0
 20
0.0
 30
0.0
  9
$UCSORGBOTTOM
 10
0.0
 20
0.0
 30
0.0
  9
$UCSORGLEFT
 10
0.0
 20
0.0
 30
0.0
  9
$UCSORGRIGHT
 10
0.0
 20
0.0
 30
0.0
  9
$UCSORGFRONT
 10
0.0
 20
0.0
 30
0.0
  9
$UCSORGBACK
 10
0.0
 20
0.0
 30
0.0
  9
$PUCSBASE
  2

  9
$PUCSNAME
  2

  9
$PUCSORG
 10
0.0
 20
0.0
 30
0.0
  9
$PUCSXDIR
 10
1.0
 20
0.0
 30
0.0
  9
$PUCSYDIR
 10
0.0
 20
1.0
 30
0.0
  9
$PUCSORTHOREF
  2

  9
$PUCSORTHOVIEW
 70
     0
  9
$PUCSORGTOP
 10
0.0
 20
0.0
 30
0.0
  9
$PUCSORGBOTTOM
 10
0.0
 20
0.0
 30
0.0
  9
$PUCSORGLEFT
 10
0.0
 20
0.0
 30
0.0
  9
$PUCSORGRIGHT
 10
0.0
 20
0.0
 30
0.0
  9
$PUCSORGFRONT
 10
0.0
 20
0.0
 30
0.0
  9
$PUCSORGBACK
 10
0.0
 20
0.0
 30
0.0
  9
$USERI1
 70
     0
  9
$USERI2
 70
     0
  9
$USERI3
 70
     0
  9
$USERI4
 70
     0
  9
$USERI5
 70
     0
  9
$USERR1
 40
0.0
  9
$USERR2
 40
0.0
  9
$USERR3
 40
0.0
  9
$USERR4
 40
0.0
  9
$USERR5
 40
0.0
  9
$WORLDVIEW
 70
     1
  9
$SHADEDGE
 70
     3
  9
$SHADEDIF
 70
    70
  9
$TILEMODE
 70
     1
  9
$MAXACTVP
 70
    64
  9
$PINSBASE
 10
0.0
 20
0.0
 30
0.0
  9
$PLIMCHECK
 70
     0
  9
$PEXTMIN
 10
25.69999999999999
 20
19.5
 30
0.0
  9
$PEXTMAX
 10
231.3
 20
175.5
 30
0.0
  9
$PLIMMIN
 10
-20.0
 20
-7.5
  9
$PLIMMAX
 10
277.0
 20
202.5
  9
$UNITMODE
 70
     0
  9
$VISRETAIN
 70
     1
  9
$PLINEGEN
 70
     0
  9
$PSLTSCALE
 70
     1
  9
$TREEDEPTH
 70
  3020
  9
$CMLSTYLE
  2
Standard
  9
$CMLJUST
 70
     0
  9
$CMLSCALE
 40
20.0
  9
$PROXYGRAPHICS
 70
     1
  9
$MEASUREMENT
 70
     1
  9
$CELWEIGHT
370
    -1
  9
$ENDCAPS
280
     0
  9
$JOINSTYLE
280
     0
  9
$LWDISPLAY
290
     0
  9
$INSUNITS
 70
     4
  9
$HYPERLINKBASE
  1

  9
$STYLESHEET
  1
LCG Normal.ctb
  9
$XEDIT
290
     1
  9
$CEPSNTYPE
380
     0
  9
$PSTYLEMODE
290
     1
  9
$FINGERPRINTGUID
  2
{B6DE7C7A-262B-4249-B552-876C637601A0}
  9
$VERSIONGUID
  2
{26CA6B05-2C39-4433-BDA8-5E314A0EE391}
  9
$EXTNAMES
290
     1
  9
$PSVPSCALE
 40
0.0
  9
$OLESTARTUP
290
     0
  9
$SORTENTS
280
   127
  9
$INDEXCTL
280
     0
  9
$HIDETEXT
280
     1
  9
$XCLIPFRAME
290
     0
  9
$HALOGAP
280
     0
  9
$OBSCOLOR
 70
   257
  9
$OBSLTYPE
280
     0
  9
$INTERSECTIONDISPLAY
280
     0
  9
$INTERSECTIONCOLOR
 70
   257
  9
$DIMASSOC
280
     2
  9
$PROJECTNAME
  1

  9
$CAMERADISPLAY
290
     0
  9
$LENSLENGTH
 40
50.0
  9
$CAMERAHEIGHT
 40
0.0
  9
$STEPSPERSEC
 40
2.0
  9
$STEPSIZE
 40
6.0
  9
$3DDWFPREC
 40
2.0
  9
$PSOLWIDTH
 40
0.25
  9
$PSOLHEIGHT
 40
4.0
  9
$LOFTANG1
 40
1.570796326794896
  9
$LOFTANG2
 40
1.570796326794896
  9
$LOFTMAG1
 40
0.0
  9
$LOFTMAG2
 40
0.0
  9
$LOFTPARAM
 70
     7
  9
$LOFTNORMALS
280
     1
  9
$LATITUDE
 40
37.795
  9
$LONGITUDE
 40
-122.394
  9
$NORTHDIRECTION
 40
0.0
  9
$TIMEZONE
 70
 -8000
  9
$LIGHTGLYPHDISPLAY
280
     1
  9
$TILEMODELIGHTSYNCH
280
     1
  9
$CMATERIAL
347
39
  9
$SOLIDHIST
280
     1
  9
$SHOWHIST
280
     1
  9
$DWFFRAME
280
     2
  9
$DGNFRAME
280
     0
  9
$REALWORLDSCALE
290
     1
  9
$INTERFERECOLOR
 62
     1
  9
$INTERFEREOBJVS
345
41
  9
$INTERFEREVPVS
346
42
  9
$CSHADOW
280
     0
  9
$SHADOWPLANELOCATION
 40
0.0
  0
ENDSEC
  0
SECTION
  2
CLASSES
  0
CLASS
  1
ACDBDICTIONARYWDFLT
  2
AcDbDictionaryWithDefault
  3
ObjectDBX Classes
 90
        0
 91
        1
280
     0
281
     0
  0
CLASS
  1
DICTIONARYVAR
  2
AcDbDictionaryVar
  3
ObjectDBX Classes
 90
        0
 91
        1
280
     0
281
     0
  0
CLASS
  1
TABLESTYLE
  2
AcDbTableStyle
  3
ObjectDBX Classes
 90
     4095
 91
        1
280
     0
281
     0
  0
CLASS
  1
PLOTSETTINGS
  2
AcDbPlotSettings
  3
ObjectDBX Classes
 90
        0
 91
        0
280
     0
281
     0
  0
CLASS
  1
SORTENTSTABLE
  2
AcDbSortentsTable
  3
ObjectDBX Classes
 90
        0
 91
        1
280
     0
281
     0
  0
CLASS
  1
DIMASSOC
  2
AcDbDimAssoc
  3
"AcDbDimAssoc|Product Desc:     AcDim ARX App For Dimension|Company:          Autodesk, Inc.|WEB Address:      www.autodesk.com"
 90
        0
 91
        0
280
     0
281
     0
  0
CLASS
  1
SPATIAL_FILTER
  2
AcDbSpatialFilter
  3
ObjectDBX Classes
 90
        0
 91
        0
280
     0
281
     0
  0
CLASS
  1
MATERIAL
  2
AcDbMaterial
  3
ObjectDBX Classes
 90
     1024
 91
        3
280
     0
281
     0
  0
CLASS
  1
VISUALSTYLE
  2
AcDbVisualStyle
  3
ObjectDBX Classes
 90
     4095
 91
       16
280
     0
281
     0
  0
CLASS
  1
SOLID_BACKGROUND
  2
AcDbSolidBackground
  3
SCENEOE
 90
     4095
 91
        0
280
     0
281
     0
  0
CLASS
  1
NPOCOLLECTION
  2
AcDbImpNonPersistentObjectsCollection
  3
ObjectDBX Classes
 90
     1153
 91
        0
280
     0
281
     0
  0
ENDSEC
  0
SECTION
  2
TABLES
  0
TABLE
  2
VPORT
  5
25
102
{ACAD_XDICTIONARY
360
29
102
}
330
0
100
AcDbSymbolTable
 70
     1
  0
VPORT
  5
26
330
25
100
AcDbSymbolTableRecord
100
AcDbViewportTableRecord
  2
*Active
 70
     0
 10
0.0
 20
0.0
 11
1.0
 21
1.0
 12
-7081.891532617088
 22
-25386.47989279454
 13
0.0
 23
0.0
 14
10.0
 24
10.0
 15
10.0
 25
10.0
 16
0.0
 26
0.0
 36
1.0
 17
0.0
 27
0.0
 37
0.0
 40
1521.102536699436
 41
2.494824016563146
 42
50.0
 43
0.0
 44
0.0
 50
0.0
 51
0.0
 71
     0
 72
  1000
 73
     1
 74
     3
 75
     0
 76
     0
 77
     0
 78
     0
281
     0
 65
     1
110
0.0
120
0.0
130
0.0
111
1.0
121
0.0
131
0.0
112
0.0
122
1.0
132
0.0
 79
     0
146
0.0
348
27
 60
     3
 61
     5
292
     1
282
     1
141
0.0
142
0.0
 63
   250
421
  3355443
  0
ENDTAB
  0
TABLE
  2
LTYPE
  5
20
330
0
100
AcDbSymbolTable
 70
     4
  0
LTYPE
  5
21
330
20
100
AcDbSymbolTableRecord
100
AcDbLinetypeTableRecord
  2
ByBlock
 70
     0
  3

 72
    65
 73
     0
 40
0.0
  0
LTYPE
  5
22
330
20
100
AcDbSymbolTableRecord
100
AcDbLinetypeTableRecord
  2
ByLayer
 70
     0
  3

 72
    65
 73
     0
 40
0.0
  0
LTYPE
  5
C
330
20
100
AcDbSymbolTableRecord
100
AcDbLinetypeTableRecord
  2
Continuous
 70
     0
  3
Solid line
 72
    65
 73
     0
 40
0.0
  0
LTYPE
  5
185
330
20
100
AcDbSymbolTableRecord
100
AcDbLinetypeTableRecord
  2
CENTER
 70
     0
  3
Center ____ _ ____ _ ____ _ ____ _ ____ _ ____
 72
    65
 73
     4
 40
2.0
 49
1.25
 74
     0
 49
-0.25
 74
     0
 49
0.25
 74
     0
 49
-0.25
 74
     0
  0
LTYPE
  5
61
330
20
100
AcDbSymbolTableRecord
100
AcDbLinetypeTableRecord
  2
DASHED
 70
     0
  3
Dashed __ __ __ __ __ __ __ __ __ __ __ __ __ _
 72
    65
 73
     2
 40
0.75
 49
0.5
 74
     0
 49
-0.25
 74
     0
  0
LTYPE
  5
4F
330
20
100
AcDbSymbolTableRecord
100
AcDbLinetypeTableRecord
  2
HIDDEN
 70
     0
  3
Hidden __ __ __ __ __ __ __ __ __ __ __ __ __ _
 72
    65
 73
     2
 40
0.375
 49
0.25
 74
     0
 49
-0.125
 74
     0
  0
ENDTAB
  0
TABLE
  2
LAYER
  5
17
102
{ACAD_XDICTIONARY
360
18
102
}
330
0
100
AcDbSymbolTable
 70
     7
  0
LAYER
  5
6
330
17
100
AcDbSymbolTableRecord
100
AcDbLayerTableRecord
  2
0
 70
     0
 62
     7
  6
Continuous
370
    -3
390
7
347
A
  0
LAYER
  5
4E
330
17
100
AcDbSymbolTableRecord
100
AcDbLayerTableRecord
  2
Access .1
 70
     0
 62
     1
  6
Continuous
370
    -3
390
7
347
A
1001
AcAecLayerStandard
1000

1000

  0
LAYER
  5
48
330
17
100
AcDbSymbolTableRecord
100
AcDbLayerTableRecord
  2
Access .2
 70
     0
 62
     2
  6
Continuous
370
    -3
390
7
347
A
1001
AcAecLayerStandard
1000

1000

  0
LAYER
  5
3D
330
17
100
AcDbSymbolTableRecord
100
AcDbLayerTableRecord
  2
Access .3
 70
     0
 62
     3
  6
Continuous
370
    -3
390
7
347
A
1001
AcAecLayerStandard
1000

1000

  0
LAYER
  5
60
330
17
100
AcDbSymbolTableRecord
100
AcDbLayerTableRecord
  2
Access Circulation
 70
     0
 62
     6
  6
DASHED
370
    -3
390
7
347
A
1001
AcAecLayerStandard
1000

1000

  0
LAYER
  5
184
330
17
100
AcDbSymbolTableRecord
100
AcDbLayerTableRecord
  2
Access Grid
 70
     0
 62
     8
  6
CENTER
370
    -3
390
7
347
A
1001
AcAecLayerStandard
1000

1000

  0
LAYER
  5
46
330
17
100
AcDbSymbolTableRecord
100
AcDbLayerTableRecord
  2
Dimensions
 70
     0
 62
     2
  6
Continuous
370
    -3
390
7
347
A
  0
ENDTAB
  0
TABLE
  2
STYLE
  5
1D
330
0
100
AcDbSymbolTable
 70
     1
  0
STYLE
  5
1E
330
1D
100
AcDbSymbolTableRecord
100
AcDbTextStyleTableRecord
  2
Standard
 70
     0
 40
0.0
 41
1.0
 50
0.0
 71
     0
 42
536.1425458167722
  3
ARIALN.TTF
  4

1001
ACAD
1000
Arial Narrow
1071
       34
  0
ENDTAB
  0
TABLE
  2
VIEW
  5
23
330
0
100
AcDbSymbolTable
 70
     0
  0
ENDTAB
  0
TABLE
  2
UCS
  5
24
330
0
100
AcDbSymbolTable
 70
     0
  0
ENDTAB
  0
TABLE
  2
APPID
  5
2A
330
0
100
AcDbSymbolTable
 70
     5
  0
APPID
  5
1C
330
2A
100
AcDbSymbolTableRecord
100
AcDbRegAppTableRecord
  2
ACAD
 70
     0
  0
APPID
  5
10
330
2A
100
AcDbSymbolTableRecord
100
AcDbRegAppTableRecord
  2
ACAD_PSEXT
 70
     0
  0
APPID
  5
3E
330
2A
100
AcDbSymbolTableRecord
100
AcDbRegAppTableRecord
  2
AcAecLayerStandard
 70
     0
  0
APPID
  5
34
330
2A
100
AcDbSymbolTableRecord
100
AcDbRegAppTableRecord
  2
ACAD_DSTYLE_DIMJOGGED_JOGANGLE_SYMBOL
 70
     0
  0
APPID
  5
193
330
2A
100
AcDbSymbolTableRecord
100
AcDbRegAppTableRecord
  2
ACAD_DSTYLE_DIMEXT_LENGTH
 70
     0
  0
ENDTAB
  0
TABLE
  2
DIMSTYLE
  5
2B
330
0
100
AcDbSymbolTable
 70
     1
100
AcDbDimStyleTable
 71
     1
340
2C
  0
DIMSTYLE
105
2C
330
2B
100
AcDbSymbolTableRecord
100
AcDbDimStyleTableRecord
  2
Access
 70
     0
 40
10.0
 41
2.5
 42
1.0
 43
1.0
 44
2.0
 46
2.0
 49
2.0
 50
90.0
 73
     0
 74
     0
 77
     1
 78
     9
140
1.8
141
2.5
143
0.0394
147
0.9
171
     4
173
     1
176
   256
177
   256
178
   256
271
     0
272
     0
273
     8
274
     4
279
     2
340
1E
343
2D
344
2D
1001
ACAD_DSTYLE_DIMJOGGED_JOGANGLE_SYMBOL
1070
   384
1040
1.570796326794896
  0
ENDTAB
  0
TABLE
  2
BLOCK_RECORD
  5
1
330
0
100
AcDbSymbolTable
 70
     1
  0
BLOCK_RECORD
  5
2
102
{ACAD_XDICTIONARY
360
3
102
}
330
1
100
AcDbSymbolTableRecord
100
AcDbBlockTableRecord
  2
*Model_Space
340
E
 70
     0
280
     1
281
     0
  0
BLOCK_RECORD
  5
11
330
1
100
AcDbSymbolTableRecord
100
AcDbBlockTableRecord
  2
*Paper_Space
340
14
 70
     0
280
     1
281
     0
  0
BLOCK_RECORD
  5
2D
330
1
100
AcDbSymbolTableRecord
100
AcDbBlockTableRecord
  2
_ARCHTICK
340
0
 70
     0
280
     1
281
     0
  0
ENDTAB
  0
ENDSEC
  0
SECTION
  2
BLOCKS
  0
BLOCK
  5
5
330
2
100
AcDbEntity
  8
0
100
AcDbBlockBegin
  2
*Model_Space
 70
     0
 10
0.0
 20
0.0
 30
0.0
  3
*Model_Space
  1

  0
ENDBLK
  5
D
330
2
100
AcDbEntity
  8
0
100
AcDbBlockEnd
  0
BLOCK
  5
12
330
11
100
AcDbEntity
 67
     1
  8
0
100
AcDbBlockBegin
  2
*Paper_Space
 70
     0
 10
0.0
 20
0.0
 30
0.0
  3
*Paper_Space
  1

  0
ENDBLK
  5
13
330
11
100
AcDbEntity
 67
     1
  8
0
100
AcDbBlockEnd
  0
BLOCK
  5
2E
330
2D
100
AcDbEntity
  8
0
100
AcDbBlockBegin
  2
_ARCHTICK
 70
     0
 10
0.0
 20
0.0
 30
0.0
  3
_ARCHTICK
  1

  0
POLYLINE
  5
2F
330
2D
100
AcDbEntity
  8
0
  6
ByBlock
 62
     0
100
AcDb2dPolyline
 66
     1
 10
0.0
 20
0.0
 30
0.0
 40
0.15
 41
0.15
  0
VERTEX
  5
30
330
2F
100
AcDbEntity
  8
0
  6
ByBlock
 62
     0
100
AcDbVertex
100
AcDb2dVertex
 10
-0.5
 20
-0.5
 30
0.0
  0
VERTEX
  5
31
330
2F
100
AcDbEntity
  8
0
  6
ByBlock
 62
     0
100
AcDbVertex
100
AcDb2dVertex
 10
0.5
 20
0.5
 30
0.0
  0
SEQEND
  5
32
330
2F
100
AcDbEntity
  8
0
  6
ByBlock
 62
     0
  0
ENDBLK
  5
33
330
2D
100
AcDbEntity
  8
0
100
AcDbBlockEnd
  0
ENDSEC
  0
SECTION
  2
ENTITIES
  0
LINE
  5
43
330
2
100
AcDbEntity
  8
Access .3
100
AcDbLine
 10
-7845.944015602116
 20
-26136.698273883
 30
0.0
 11
-6441.848698920317
 21
-26136.698273883
 31
0.0
  0
LINE
  5
44
330
2
100
AcDbEntity
  8
Access .3
100
AcDbLine
 10
-6441.848698920317
 20
-26136.698273883
 30
0.0
 11
-6441.848698920317
 21
-24636.98638490332
 31
0.0
  0
LINE
  5
45
330
2
100
AcDbEntity
  8
Dimensions
100
AcDbLine
 10
-6449.848698920317
 20
-25390.198273883
 30
0.0
 11
-6449.848698920317
 21
-25315.198273883
 31
0.0
  0
LINE
  5
47
330
2
100
AcDbEntity
  8
Access .2
100
AcDbLine
 10
-6507.848698920314
 20
-25336.698273883
 30
0.0
 11
-6449.848698920317
 21
-25336.698273883
 31
0.0
  0
LINE
  5
49
330
2
100
AcDbEntity
  8
Access .2
100
AcDbLine
 10
-6507.848698920314
 20
-25368.698273883
 30
0.0
 11
-6449.848698920317
 21
-25368.698273883
 31
0.0
  0
ARC
  5
4A
330
2
100
AcDbEntity
  8
Access .2
100
AcDbCircle
 10
-6507.848698920314
 20
-25352.698273883
 30
0.0
 40
16.0
100
AcDbArc
 50
90.0
 51
270.0
  0
LINE
  5
4B
330
2
100
AcDbEntity
  8
Access .2
100
AcDbLine
 10
-6441.848698920317
 20
-25315.198273883
 30
0.0
 11
-6449.848698920317
 21
-25315.198273883
 31
0.0
  0
LINE
  5
4C
330
2
100
AcDbEntity
  8
Access .2
100
AcDbLine
 10
-6441.848698920317
 20
-25390.198273883
 30
0.0
 11
-6449.848698920317
 21
-25390.198273883
 31
0.0
  0
ARC
  5
4D
330
2
100
AcDbEntity
  8
Access .1
  6
HIDDEN
100
AcDbCircle
 10
-6507.848698920314
 20
-25352.698273883
 30
0.0
 40
16.0
100
AcDbArc
 50
270.0
 51
90.0
  0
LINE
  5
50
330
2
100
AcDbEntity
  8
Access .2
100
AcDbLine
 10
-6507.848698920314
 20
-25368.698273883
 30
0.0
 11
-6757.769161613014
 21
-25368.698273883
 31
0.0
  0
LINE
  5
51
330
2
100
AcDbEntity
  8
Access .2
100
AcDbLine
 10
-6767.923427731872
 20
-25368.698273883
 30
0.0
 11
-7408.213882952335
 21
-25368.698273883
 31
0.0
  0
ARC
  5
52
330
2
100
AcDbEntity
  8
Access .2
100
AcDbCircle
 10
-7408.213882952335
 20
-25268.698273883
 30
0.0
 40
100.0
100
AcDbArc
 50
180.0
 51
270.0
  0
ARC
  5
53
330
2
100
AcDbEntity
  8
Access .2
100
AcDbCircle
 10
-7408.213882952335
 20
-25268.698273883
 30
0.0
 40
68.0
100
AcDbArc
 50
180.0
 51
270.0
  0
LINE
  5
54
330
2
100
AcDbEntity
  8
Access .2
100
AcDbLine
 10
-6507.848698920314
 20
-25336.698273883
 30
0.0
 11
-6752.126698230343
 21
-25336.698273883
 31
0.0
  0
LINE
  5
55
330
2
100
AcDbEntity
  8
Access .2
100
AcDbLine
 10
-6762.280964349201
 20
-25336.698273883
 30
0.0
 11
-7408.213882952335
 21
-25336.698273883
 31
0.0
  0
ARC
  5
56
330
2
100
AcDbEntity
  8
Access .2
100
AcDbCircle
 10
-6891.848698920317
 20
-25422.698273883
 30
0.0
 40
9.5
100
AcDbArc
 50
180.0
 51
0.0
  0
ARC
  5
57
330
2
100
AcDbEntity
  8
Access .2
100
AcDbCircle
 10
-6891.848698920317
 20
-25422.698273883
 30
0.0
 40
37.5
100
AcDbArc
 50
104.6748497427955
 51
75.32515025709717
  0
LINE
  5
58
330
2
100
AcDbEntity
  8
Access .2
100
AcDbLine
 10
-6901.348698920317
 20
-25422.698273883
 30
0.0
 11
-6901.348698920317
 21
-25368.698273883
 31
0.0
  0
LINE
  5
59
330
2
100
AcDbEntity
  8
Access .2
100
AcDbLine
 10
-6882.348698920317
 20
-25422.698273883
 30
0.0
 11
-6882.348698920317
 21
-25368.698273883
 31
0.0
  0
LINE
  5
5A
330
2
100
AcDbEntity
  8
Access .2
100
AcDbLine
 10
-7476.213882952333
 20
-25268.698273883
 30
0.0
 11
-7476.213882952333
 21
-24752.698273883
 31
0.0
  0
LINE
  5
5B
330
2
100
AcDbEntity
  8
Access .2
100
AcDbLine
 10
-7508.213882952334
 20
-25268.698273883
 30
0.0
 11
-7508.213882952334
 21
-24752.698273883
 31
0.0
  0
ARC
  5
5C
330
2
100
AcDbEntity
  8
Access .2
100
AcDbCircle
 10
-7492.213882952332
 20
-24752.698273883
 30
0.0
 40
16.0
100
AcDbArc
 50
0.0
 51
180.0
  0
ARC
  5
5D
330
2
100
AcDbEntity
  8
Access .2
100
AcDbCircle
 10
-7492.213882952332
 20
-24752.698273883
 30
0.0
 40
37.5
100
AcDbArc
 50
295.2562036615383
 51
244.7437963384616
  0
ARC
  5
5E
330
2
100
AcDbEntity
  8
Access .1
  6
HIDDEN
100
AcDbCircle
 10
-7492.213882952332
 20
-24752.698273883
 30
0.0
 40
16.0
100
AcDbArc
 50
180.0
 51
0.0
  0
LINE
  5
5F
330
2
100
AcDbEntity
  8
Access Circulation
100
AcDbLine
 10
-7538.681723682493
 20
-25436.698273883
 30
0.0
 11
-7238.681723682494
 21
-25436.698273883
 31
0.0
  0
LINE
  5
62
330
2
100
AcDbEntity
  8
Access Circulation
100
AcDbLine
 10
-7238.681723682494
 20
-25670.40830754809
 30
0.0
 11
-7538.681723682493
 21
-25670.40830754809
 31
0.0
  0
LINE
  5
63
330
2
100
AcDbEntity
  8
Access Circulation
100
AcDbLine
 10
-7238.681723682494
 20
-25670.40830754809
 30
0.0
 11
-7238.681723682494
 21
-25436.698273883
 31
0.0
  0
LINE
  5
64
330
2
100
AcDbEntity
  8
Access Circulation
100
AcDbLine
 10
-7538.681723682493
 20
-25670.40830754809
 30
0.0
 11
-7538.681723682493
 21
-25436.698273883
 31
0.0
  0
LWPOLYLINE
  5
65
330
2
100
AcDbEntity
  8
Access .2
100
AcDbPolyline
 90
        4
 70
     1
 43
0.0
 10
-7460.681723682494
 20
-25613.55329071554
 10
-7460.681723682494
 20
-25493.55329071554
 10
-7316.681723682494
 20
-25493.55329071554
 10
-7316.681723682494
 20
-25613.55329071554
  0
LINE
  5
66
330
2
100
AcDbEntity
  8
Access .2
100
AcDbLine
 10
-7460.681723682494
 20
-25563.55329071554
 30
0.0
 11
-7316.681723682494
 21
-25563.55329071554
 31
0.0
  0
LINE
  5
67
330
2
100
AcDbEntity
  8
Access .2
100
AcDbLine
 10
-7460.681723682494
 20
-25543.55329071555
 30
0.0
 11
-7316.681723682494
 21
-25543.55329071555
 31
0.0
  0
LINE
  5
68
330
2
100
AcDbEntity
  8
Access .1
100
AcDbLine
 10
-6738.21698505313
 20
-25756.69714473261
 30
0.0
 11
-6601.740483588286
 21
-25756.69735835565
 31
0.0
  0
LINE
  5
69
330
2
100
AcDbEntity
  8
Access .2
100
AcDbLine
 10
-6928.848698920318
 20
-26136.698273883
 30
0.0
 11
-6571.84863788516
 21
-26136.698273883
 31
0.0
  0
LWPOLYLINE
  5
6A
330
2
100
AcDbEntity
  8
Access .2
100
AcDbPolyline
 90
       19
 70
     0
 43
0.0
 10
-6441.848698920317
 20
-25689.698273883
 10
-6462.895207709379
 20
-25690.84448359979
 10
-6483.953435248442
 20
-25692.07440303339
 10
-6503.947758978911
 20
-25693.31033442987
 10
-6517.275334662506
 20
-25694.16473506464
 10
-6543.914128607818
 20
-25695.92443965448
 10
-6577.913823432036
 20
-25698.20864985956
 10
-6601.406316107817
 20
-25699.75915645136
 10
-6613.153722113676
 20
-25700.51162837518
 10
-6630.776524848052
 20
-25701.59781001581
 10
-6643.995061225004
 20
-25702.37008784784
 10
-6657.214848822661
 20
-25703.0982372619
 10
-6675.738042182036
 20
-25704.03140376581
 10
-6694.264531439849
 20
-25704.84723018183
 10
-6712.794194525786
 20
-25705.52984736933
 10
-6730.05521137149
 20
-25706.03353999628
 10
-6747.318791693754
 20
-25706.40039180292
 10
-6764.58368427188
 20
-25706.62344478144
 10
-6781.848698920318
 20
-25706.698273883
  0
LINE
  5
6B
330
2
100
AcDbEntity
  8
Access .1
100
AcDbLine
 10
-7097.588933295317
 20
-25676.23523067011
 30
0.0
 11
-7039.499394721099
 21
-25676.23520015253
 31
0.0
  0
LINE
  5
6C
330
2
100
AcDbEntity
  8
Access .1
100
AcDbLine
 10
-7097.588933295317
 20
-25676.23523067011
 30
0.0
 11
-7039.499394721099
 21
-25676.23520015253
 31
0.0
  0
LINE
  5
6D
330
2
100
AcDbEntity
  8
Access .1
100
AcDbLine
 10
-7105.286565131256
 20
-25692.79654048456
 30
0.0
 11
-7047.566045111723
 21
-25692.79654048456
 31
0.0
  0
LINE
  5
6E
330
2
100
AcDbEntity
  8
Access .2
100
AcDbLine
 10
-7086.848698920317
 20
-26136.698273883
 30
0.0
 11
-6986.848698920318
 21
-26136.698273883
 31
0.0
  0
LINE
  5
6F
330
2
100
AcDbEntity
  8
Access .2
100
AcDbLine
 10
-7231.03760272891
 20
-25706.698273883
 30
0.0
 11
-6987.023564642973
 21
-25706.698273883
 31
0.0
  0
LWPOLYLINE
  5
70
330
2
100
AcDbEntity
  8
Access .2
100
AcDbPolyline
 90
       32
 70
     0
 43
0.0
 10
-7238.79169208438
 20
-25716.698273883
 10
-7222.188603705474
 20
-25771.15728877557
 10
-7206.719121283599
 20
-25822.02426265253
 10
-7197.539616889068
 20
-25851.9763195373
 10
-7192.691228217192
 20
-25867.62625239862
 10
-7188.180486029692
 20
-25882.03764461054
 10
-7183.319768256255
 20
-25897.37086604608
 10
-7180.038640326568
 20
-25907.58815120234
 10
-7176.603215521879
 20
-25918.15861629022
 10
-7171.820378607818
 20
-25932.63865779413
 10
-7166.800053900786
 20
-25947.51837275995
 10
-7161.590886420317
 20
-25962.58848689569
 10
-7159.168034857818
 20
-25969.46450923456
 10
-7153.916936225005
 20
-25984.06918452753
 10
-7148.531010932036
 20
-25998.61866878046
 10
-7145.783940619536
 20
-26005.87083552851
 10
-7142.999089545317
 20
-26013.10694240106
 10
-7139.224736517974
 20
-26022.72884486688
 10
-7135.377690619536
 20
-26032.31917689813
 10
-7131.455144232818
 20
-26041.87624476923
 10
-7126.29657489688
 20
-26054.11240504755
 10
-7121.003423041411
 20
-26066.28758357538
 10
-7115.571111029692
 20
-26078.39869807734
 10
-7112.78534442813
 20
-26084.46411250604
 10
-7109.962895697662
 20
-26090.51229213251
 10
-7107.13641864688
 20
-26096.47377131952
 10
-7104.27332050235
 20
-26102.41781734003
 10
-7100.375737494537
 20
-26110.36145900263
 10
-7096.411198920318
 20
-26118.2727672912
 10
-7092.379399603911
 20
-26126.15130733026
 10
-7089.515752142974
 20
-26131.64889644159
 10
-7086.848698920317
 20
-26136.698273883
  0
LWPOLYLINE
  5
71
330
2
100
AcDbEntity
  8
Access .1
100
AcDbPolyline
 90
       25
 70
     0
 43
0.0
 10
-7217.48779804141
 20
-25676.23541377558
 10
-7220.387578314849
 20
-25676.297883258
 10
-7221.872197455474
 20
-25676.38775752558
 10
-7223.353642767974
 20
-25676.52078364862
 10
-7224.760075873442
 20
-25676.69119380487
 10
-7226.158208197661
 20
-25676.90826533808
 10
-7227.983403510162
 20
-25677.27359126581
 10
-7229.784978217193
 20
-25677.74237178339
 10
-7231.550908392974
 20
-25678.33078120722
 10
-7232.415593451567
 20
-25678.67508052362
 10
-7233.265019721099
 20
-25679.05539058222
 10
-7234.530217475004
 20
-25679.7116710998
 10
-7235.739995307037
 20
-25680.46087764277
 10
-7236.884160346099
 20
-25681.30703853144
 10
-7237.951665228911
 20
-25682.25140498651
 10
-7238.929814642974
 20
-25683.29266475214
 10
-7239.802007025786
 20
-25684.42096065058
 10
-7240.560612982817
 20
-25685.62869380487
 10
-7241.20087177188
 20
-25686.90594600214
 10
-7241.557622260161
 20
-25687.78595088495
 10
-7241.858281439849
 20
-25688.68576167597
 10
-7242.081975287504
 20
-25689.49148677362
 10
-7242.270818060943
 20
-25690.3089001037
 10
-7242.427861517974
 20
-25691.29800532831
 10
-7242.454045600005
 20
-25691.79654048456
  0
LINE
  5
72
330
2
100
AcDbEntity
  8
Access .1
100
AcDbLine
 10
-7236.232060736724
 20
-25692.79654048456
 30
0.0
 11
-7228.692632025786
 21
-25692.79654048456
 31
0.0
  0
ARC
  5
73
330
2
100
AcDbEntity
  8
Access .2
100
AcDbCircle
 10
-7231.03760272891
 20
-25714.698273883
 30
0.0
 40
8.0
100
AcDbArc
 50
90.00000250446868
 51
194.4828610095845
  0
LINE
  5
74
330
2
100
AcDbEntity
  8
Access .1
100
AcDbLine
 10
-7242.454045600005
 20
-25692.79654048456
 30
0.0
 11
-7236.232060736724
 21
-25692.79654048456
 31
0.0
  0
LINE
  5
75
330
2
100
AcDbEntity
  8
Access .1
100
AcDbLine
 10
-7242.453130072661
 20
-25692.79654048456
 30
0.0
 11
-7242.453130072661
 21
-25691.79654048456
 31
0.0
  0
LINE
  5
76
330
2
100
AcDbEntity
  8
Access .1
100
AcDbLine
 10
-7242.453069037505
 20
-25692.79654048456
 30
0.0
 11
-7242.453069037505
 21
-25691.79654048456
 31
0.0
  0
LINE
  5
77
330
2
100
AcDbEntity
  8
Access .1
100
AcDbLine
 10
-7168.608342475005
 20
-25676.23513911737
 30
0.0
 11
-7097.588933295317
 21
-25676.23523067011
 31
0.0
  0
LINE
  5
78
330
2
100
AcDbEntity
  8
Access .1
100
AcDbLine
 10
-7168.608342475005
 20
-25676.23513911737
 30
0.0
 11
-7097.588933295317
 21
-25676.23523067011
 31
0.0
  0
LINE
  5
79
330
2
100
AcDbEntity
  8
Access .1
100
AcDbLine
 10
-7153.400090521881
 20
-25702.79654048456
 30
0.0
 11
-7135.122502631254
 21
-25702.79654048456
 31
0.0
  0
LINE
  5
7A
330
2
100
AcDbEntity
  8
Access .1
100
AcDbLine
 10
-7184.848027533599
 20
-25692.79654048456
 30
0.0
 11
-7110.183049506256
 21
-25692.79654048456
 31
0.0
  0
LINE
  5
7B
330
2
100
AcDbEntity
  8
Access .2
100
AcDbLine
 10
-7188.672917670317
 20
-25706.698273883
 30
0.0
 11
-7153.384221381255
 21
-25706.698273883
 31
0.0
  0
LINE
  5
7C
330
2
100
AcDbEntity
  8
Access .2
100
AcDbLine
 10
-7188.672917670317
 20
-25706.698273883
 30
0.0
 11
-7153.384221381255
 21
-25706.698273883
 31
0.0
  0
LINE
  5
7D
330
2
100
AcDbEntity
  8
Access .1
100
AcDbLine
 10
-7197.660344428129
 20
-25676.23483394159
 30
0.0
 11
-7168.608647650787
 21
-25676.23513911737
 31
0.0
  0
LINE
  5
7E
330
2
100
AcDbEntity
  8
Access .1
100
AcDbLine
 10
-7197.660344428129
 20
-25676.23483394159
 30
0.0
 11
-7168.608647650787
 21
-25676.23513911737
 31
0.0
  0
LINE
  5
7F
330
2
100
AcDbEntity
  8
Access .1
100
AcDbLine
 10
-7218.828069037505
 20
-25692.79654048456
 30
0.0
 11
-7188.30829364688
 21
-25692.79654048456
 31
0.0
  0
LINE
  5
80
330
2
100
AcDbEntity
  8
Access .1
100
AcDbLine
 10
-7212.453069037505
 20
-25676.23550532831
 30
0.0
 11
-7197.659856146881
 21
-25676.23483394159
 31
0.0
  0
LINE
  5
81
330
2
100
AcDbEntity
  8
Access .1
100
AcDbLine
 10
-7212.453069037505
 20
-25676.23550532831
 30
0.0
 11
-7197.659856146881
 21
-25676.23483394159
 31
0.0
  0
LINE
  5
82
330
2
100
AcDbEntity
  8
Access .2
100
AcDbLine
 10
-7217.458928412504
 20
-25706.698273883
 30
0.0
 11
-7217.403447455474
 21
-25706.698273883
 31
0.0
  0
LINE
  5
83
330
2
100
AcDbEntity
  8
Access .2
100
AcDbLine
 10
-7217.458928412504
 20
-25706.698273883
 30
0.0
 11
-7217.403447455474
 21
-25706.698273883
 31
0.0
  0
LINE
  5
84
330
2
100
AcDbEntity
  8
Access .1
100
AcDbLine
 10
-7228.691716498443
 20
-25692.79654048456
 30
0.0
 11
-7218.821660346098
 21
-25692.79654048456
 31
0.0
  0
LWPOLYLINE
  5
85
330
2
100
AcDbEntity
  8
Access .1
100
AcDbPolyline
 90
        6
 70
     0
 43
0.0
 10
-7212.443974799224
 20
-25676.23550532831
 10
-7217.476567572662
 20
-25676.23462031855
 10
-7217.666020697662
 20
-25676.23507808222
 10
-7217.670354193756
 20
-25676.23513911737
 10
-7217.66376239688
 20
-25676.23523067011
 10
-7217.48779804141
 20
-25676.23541377558
  0
LINE
  5
86
330
2
100
AcDbEntity
  8
Access .1
100
AcDbLine
 10
-7217.666020697662
 20
-25676.23507808222
 30
0.0
 11
-7212.443974799224
 21
-25676.23550532831
 31
0.0
  0
LINE
  5
87
330
2
100
AcDbEntity
  8
Access .1
100
AcDbLine
 10
-7188.308537787505
 20
-25692.79654048456
 30
0.0
 11
-7184.847295111724
 21
-25692.79654048456
 31
0.0
  0
ARC
  5
88
330
2
100
AcDbEntity
  8
Access .1
100
AcDbCircle
 10
-7153.764958685943
 20
-25701.29687617792
 30
0.0
 40
1.499693870544433
100
AcDbArc
 50
194.9899930801775
 51
269.9950182875159
  0
LINE
  5
89
330
2
100
AcDbEntity
  8
Access .1
100
AcDbLine
 10
-7153.769048041411
 20
-25702.79654048456
 30
0.0
 11
-7153.400090521881
 21
-25702.79654048456
 31
0.0
  0
LINE
  5
8A
330
2
100
AcDbEntity
  8
Access .1
100
AcDbLine
 10
-7155.217900580474
 20
-25701.68475459589
 30
0.0
 11
-7157.599492377349
 21
-25692.79654048456
 31
0.0
  0
LINE
  5
8B
330
2
100
AcDbEntity
  8
Access .1
100
AcDbLine
 10
-7104.481084174223
 20
-25701.68475459589
 30
0.0
 11
-7102.099492377348
 21
-25692.79654048456
 31
0.0
  0
LINE
  5
8C
330
2
100
AcDbEntity
  8
Access .1
100
AcDbLine
 10
-7104.481084174223
 20
-25701.68475459589
 30
0.0
 11
-7102.099492377348
 21
-25692.79654048456
 31
0.0
  0
LINE
  5
8D
330
2
100
AcDbEntity
  8
Access .1
100
AcDbLine
 10
-7135.122502631254
 20
-25702.79654048456
 30
0.0
 11
-7121.71436054141
 21
-25702.79654048456
 31
0.0
  0
ARC
  5
8E
330
2
100
AcDbEntity
  8
Access .1
100
AcDbCircle
 10
-7131.75262958438
 20
-25706.29644893183
 30
0.0
 40
3.499921321868896
100
AcDbArc
 50
7.598981647262751
 51
90.00401865586031
  0
LINE
  5
8F
330
2
100
AcDbEntity
  8
Access .1
100
AcDbLine
 10
-7128.16815692813
 20
-25706.698273883
 30
0.0
 11
-7128.284123725006
 21
-25705.82946895136
 31
0.0
  0
ARC
  5
90
330
2
100
AcDbEntity
  8
Access .1
100
AcDbCircle
 10
-7105.930974310942
 20
-25701.29660151972
 30
0.0
 40
1.499929666519165
100
AcDbArc
 50
270.0048400994501
 51
345.0024610823094
  0
LINE
  5
91
330
2
100
AcDbEntity
  8
Access .1
100
AcDbLine
 10
-7121.71436054141
 20
-25702.79654048456
 30
0.0
 11
-7110.921758002348
 21
-25702.79654048456
 31
0.0
  0
LINE
  5
92
330
2
100
AcDbEntity
  8
Access .1
100
AcDbLine
 10
-7110.921758002348
 20
-25702.79654048456
 30
0.0
 11
-7105.930058783599
 21
-25702.79654048456
 31
0.0
  0
LWPOLYLINE
  5
93
330
2
100
AcDbEntity
  8
Access .1
100
AcDbPolyline
 90
        7
 70
     0
 43
0.0
 10
-7107.772832221098
 20
-25702.79654048456
 10
-7108.00555927188
 20
-25702.85473750605
 10
-7108.244511908599
 20
-25703.01263545526
 10
-7108.476201361724
 20
-25703.241242633
 10
-7108.825627631254
 20
-25703.70410274042
 10
-7109.037297553129
 20
-25704.04626582636
 10
-7109.414189642973
 20
-25704.75827144159
  0
LINE
  5
94
330
2
100
AcDbEntity
  8
Access .1
100
AcDbLine
 10
-7109.813481635161
 20
-25706.69802974237
 30
0.0
 11
-7109.759221381255
 21
-25706.01880000605
 31
0.0
  0
ARC
  5
95
330
2
100
AcDbEntity
  8
Access .1
100
AcDbCircle
 10
-7106.271245307036
 20
-25706.295930133
 30
0.0
 40
3.498904228210449
100
AcDbArc
 50
153.9302248750118
 51
175.4587760219995
  0
ARC
  5
96
330
2
100
AcDbEntity
  8
Access .1
100
AcDbCircle
 10
-7106.271245307036
 20
-25706.295930133
 30
0.0
 40
3.498904228210449
100
AcDbArc
 50
153.9302248750118
 51
175.4586942018135
  0
LINE
  5
97
330
2
100
AcDbEntity
  8
Access .1
100
AcDbLine
 10
-7109.813481635161
 20
-25706.69802974237
 30
0.0
 11
-7109.759221381255
 21
-25706.01883052362
 31
0.0
  0
LINE
  5
98
330
2
100
AcDbEntity
  8
Access .1
100
AcDbLine
 10
-7109.459538764068
 20
-25704.85180781854
 30
0.0
 11
-7109.414189642973
 21
-25704.75827144159
 31
0.0
  0
LINE
  5
99
330
2
100
AcDbEntity
  8
Access .1
100
AcDbLine
 10
-7110.183049506256
 20
-25692.79654048456
 30
0.0
 11
-7105.286687201567
 21
-25692.79654048456
 31
0.0
  0
LINE
  5
9A
330
2
100
AcDbEntity
  8
Access .2
100
AcDbLine
 10
-6986.848698920318
 20
-26136.698273883
 30
0.0
 11
-6928.848698920318
 21
-26136.698273883
 31
0.0
  0
LINE
  5
9B
330
2
100
AcDbEntity
  8
Access .1
100
AcDbLine
 10
-6924.327641791411
 20
-26099.81778071893
 30
0.0
 11
-6886.523442572661
 21
-25791.97598384394
 31
0.0
  0
LWPOLYLINE
  5
9C
330
2
100
AcDbEntity
  8
Access .1
100
AcDbPolyline
 90
        5
 70
     0
 43
0.0
 10
-6880.496007269927
 20
-25666.30279658808
 10
-6890.478459662505
 20
-25667.60785029901
 10
-6901.078526801177
 20
-25668.8619091369
 10
-6910.826817816801
 20
-25669.88641475214
 10
-6912.264653510161
 20
-25670.02841304315
  0
LWPOLYLINE
  5
9D
330
2
100
AcDbEntity
  8
Access .1
100
AcDbPolyline
 90
        5
 70
     0
 43
0.0
 10
-6880.496007269927
 20
-25666.30279658808
 10
-6890.478459662505
 20
-25667.60785029901
 10
-6901.078526801177
 20
-25668.8619091369
 10
-6910.826817816801
 20
-25669.88641475214
 10
-6912.264653510161
 20
-25670.02841304315
  0
LWPOLYLINE
  5
9E
330
2
100
AcDbEntity
  8
Access .1
100
AcDbPolyline
 90
        5
 70
     0
 43
0.0
 10
-6881.923924750395
 20
-25682.32977412714
 10
-6886.467259711332
 20
-25683.28903316034
 10
-6891.094975775786
 20
-25684.15246699823
 10
-6895.790990180083
 20
-25684.93737910761
 10
-6897.432042426178
 20
-25685.18698237909
  0
LINE
  5
9F
330
2
100
AcDbEntity
  8
Access .1
100
AcDbLine
 10
-6897.84457904727
 20
-25692.79654048456
 30
0.0
 11
-6886.17972309024
 21
-25692.79654048456
 31
0.0
  0
LINE
  5
A0
330
2
100
AcDbEntity
  8
Access .2
100
AcDbLine
 10
-6987.02362567813
 20
-25706.698273883
 30
0.0
 11
-6781.848698920318
 21
-25706.698273883
 31
0.0
  0
LWPOLYLINE
  5
A1
330
2
100
AcDbEntity
  8
Access .1
100
AcDbPolyline
 90
        4
 70
     0
 43
0.0
 10
-6960.859868353911
 20
-25674.03277705682
 10
-6971.863164252349
 20
-25674.74243281854
 10
-6982.777348822661
 20
-25675.31659053339
 10
-6984.755742377349
 20
-25675.41656611933
  0
LWPOLYLINE
  5
A2
330
2
100
AcDbEntity
  8
Access .1
100
AcDbPolyline
 90
        4
 70
     0
 43
0.0
 10
-6960.859868353911
 20
-25674.03277705682
 10
-6971.863164252349
 20
-25674.74243281854
 10
-6982.777348822661
 20
-25675.31659053339
 10
-6984.755742377349
 20
-25675.41656611933
  0
LWPOLYLINE
  5
A3
330
2
100
AcDbEntity
  8
Access .1
100
AcDbPolyline
 90
        6
 70
     0
 43
0.0
 10
-6965.980290717192
 20
-25691.40454219354
 10
-6971.607976264067
 20
-25691.68771480097
 10
-6982.848698920317
 20
-25692.2005016662
 10
-6991.231572455474
 20
-25692.53009150995
 10
-6999.399846381255
 20
-25692.73742793573
 10
-7007.522038764067
 20
-25692.79654048456
  0
LINE
  5
A4
330
2
100
AcDbEntity
  8
Access .1
100
AcDbLine
 10
-6989.665837592193
 20
-25692.79650996698
 30
0.0
 11
-6897.84457904727
 21
-25692.79654048456
 31
0.0
  0
LINE
  5
A5
330
2
100
AcDbEntity
  8
Access .1
100
AcDbLine
 10
-7052.882024115629
 20
-25706.698273883
 30
0.0
 11
-6987.023564642973
 21
-25706.698273883
 31
0.0
  0
LINE
  5
A6
330
2
100
AcDbEntity
  8
Access .2
100
AcDbLine
 10
-7052.882024115629
 20
-25706.698273883
 30
0.0
 11
-6987.023564642973
 21
-25706.698273883
 31
0.0
  0
LINE
  5
A7
330
2
100
AcDbEntity
  8
Access .1
100
AcDbLine
 10
-7039.499394721099
 20
-25676.23520015253
 30
0.0
 11
-7007.522038764067
 21
-25676.23520015253
 31
0.0
  0
LINE
  5
A8
330
2
100
AcDbEntity
  8
Access .1
100
AcDbLine
 10
-7039.499394721099
 20
-25676.23520015253
 30
0.0
 11
-7007.522038764067
 21
-25676.23520015253
 31
0.0
  0
LINE
  5
A9
330
2
100
AcDbEntity
  8
Access .1
100
AcDbLine
 10
-7047.566045111723
 20
-25692.79654048456
 30
0.0
 11
-7007.522038764067
 21
-25692.79654048456
 31
0.0
  0
LWPOLYLINE
  5
AA
330
2
100
AcDbEntity
  8
Access .1
100
AcDbPolyline
 90
        5
 70
     0
 43
0.0
 10
-6984.755742377349
 20
-25675.41656611933
 10
-6994.265569037505
 20
-25675.89141963495
 10
-6999.93817645938
 20
-25676.11435054315
 10
-7005.615727728912
 20
-25676.227570758
 10
-7007.522038764067
 20
-25676.23523067011
  0
LWPOLYLINE
  5
AB
330
2
100
AcDbEntity
  8
Access .1
100
AcDbPolyline
 90
        5
 70
     0
 43
0.0
 10
-6984.755742377349
 20
-25675.41656611933
 10
-6994.265569037505
 20
-25675.89141963495
 10
-6999.93817645938
 20
-25676.11435054315
 10
-7005.615727728912
 20
-25676.227570758
 10
-7007.522038764067
 20
-25676.23523067011
  0
LINE
  5
AC
330
2
100
AcDbEntity
  8
Access .1
100
AcDbLine
 10
-7006.307439154692
 20
-25692.79654048456
 30
0.0
 11
-6989.660771674223
 21
-25692.79654048456
 31
0.0
  0
LINE
  5
AD
330
2
100
AcDbEntity
  8
Access .1
100
AcDbLine
 10
-7006.316350287505
 20
-25692.79654048456
 30
0.0
 11
-6989.665837592193
 21
-25692.79650996698
 31
0.0
  0
LINE
  5
AE
330
2
100
AcDbEntity
  8
Access .1
100
AcDbLine
 10
-6989.666020697661
 20
-25692.79654048456
 30
0.0
 11
-6989.656071967193
 21
-25692.79513667597
 31
0.0
  0
LWPOLYLINE
  5
AF
330
2
100
AcDbEntity
  8
Access .1
100
AcDbPolyline
 90
        5
 70
     0
 43
0.0
 10
-6912.264653510161
 20
-25670.02841304315
 10
-6923.648045844146
 20
-25671.07754634394
 10
-6935.698766058989
 20
-25672.06997798456
 10
-6952.456487006255
 20
-25673.39557002558
 10
-6960.859868353911
 20
-25674.03277705682
  0
LWPOLYLINE
  5
B0
330
2
100
AcDbEntity
  8
Access .1
100
AcDbPolyline
 90
        5
 70
     0
 43
0.0
 10
-6912.264653510161
 20
-25670.02841304315
 10
-6923.648045844146
 20
-25671.07754634394
 10
-6935.698766058989
 20
-25672.06997798456
 10
-6952.456487006255
 20
-25673.39557002558
 10
-6960.859868353911
 20
-25674.03277705682
  0
LWPOLYLINE
  5
B1
330
2
100
AcDbEntity
  8
Access .1
100
AcDbPolyline
 90
        4
 70
     0
 43
0.0
 10
-6929.237431830474
 20
-25688.73712275995
 10
-6935.985997504302
 20
-25689.26477168573
 10
-6949.554112738677
 20
-25690.28531001581
 10
-6954.718694037506
 20
-25690.67379878534
  0
ARC
  5
B2
330
2
100
AcDbEntity
  8
Access .1
100
AcDbCircle
 10
-6997.014409369537
 20
-25122.01440547479
 30
0.0
 40
570.2332153320312
100
AcDbArc
 50
273.1199936587231
 51
274.2543585159519
  0
LWPOLYLINE
  5
B3
330
2
100
AcDbEntity
  8
Access .1
100
AcDbPolyline
 90
        7
 70
     0
 43
0.0
 10
-6897.432042426178
 20
-25685.18698237909
 10
-6904.274998969146
 20
-25686.14959834589
 10
-6907.721959418364
 20
-25686.58258174433
 10
-6912.924260443755
 20
-25687.16955684198
 10
-6921.034398383209
 20
-25687.98309443964
 10
-6926.493993109771
 20
-25688.49453853144
 10
-6929.237431830474
 20
-25688.73712275995
  0
LWPOLYLINE
  5
B4
330
2
100
AcDbEntity
  8
Access .1
100
AcDbPolyline
 90
       15
 70
     0
 43
0.0
 10
-6837.173711127348
 20
-25767.08273433222
 10
-6838.502263373442
 20
-25773.8496410705
 10
-6840.127354926178
 20
-25781.594758258
 10
-6842.052281683989
 20
-25790.13000606073
 10
-6844.072697943755
 20
-25798.43686030878
 10
-6845.958745307036
 20
-25805.65878413691
 10
-6847.813084906646
 20
-25812.27291987909
 10
-6849.583409613678
 20
-25818.14087031855
 10
-6850.821904486723
 20
-25821.98562739862
 10
-6852.52542621524
 20
-25826.9397594787
 10
-6853.57343036563
 20
-25829.81463740839
 10
-6855.097630805083
 20
-25833.75918696893
 10
-6856.693089789458
 20
-25837.53878901972
 10
-6858.333470648833
 20
-25841.09463618768
 10
-6859.842747992583
 20
-25844.22485469354
  0
CIRCLE
  5
B5
330
2
100
AcDbEntity
  8
Access .1
100
AcDbCircle
 10
-6816.848698920317
 20
-26106.698273883
 30
0.0
 40
10.0
  0
LWPOLYLINE
  5
B6
330
2
100
AcDbEntity
  8
Access .1
100
AcDbPolyline
 90
       13
 70
     0
 43
0.0
 10
-6860.020207709379
 20
-25844.58999751581
 10
-6861.413945502349
 20
-25847.19119380487
 10
-6862.906255072662
 20
-25849.77826045526
 10
-6864.448857611724
 20
-25852.24691890253
 10
-6865.246342963286
 20
-25853.44629024042
 10
-6866.46063739688
 20
-25855.17611812128
 10
-6867.730168646879
 20
-25856.86746333612
 10
-6869.552037543364
 20
-25859.10083125605
 10
-6871.336369818755
 20
-25861.08480952753
 10
-6873.293370551177
 20
-25863.05127070917
 10
-6875.297490424223
 20
-25864.86911128534
 10
-6875.813390082427
 20
-25865.30557368769
 10
-6877.563939398832
 20
-25866.70202754511
  0
LWPOLYLINE
  5
B7
330
2
100
AcDbEntity
  8
Access .1
100
AcDbPolyline
 90
        5
 70
     0
 43
0.0
 10
-6881.498326605864
 20
-25868.93353389276
 10
-6880.580388373442
 20
-25868.31918452753
 10
-6879.574315375396
 20
-25867.76367305292
 10
-6878.516484564849
 20
-25867.29077266229
 10
-6878.13724262149
 20
-25867.14471553339
  0
LINE
  5
B8
330
2
100
AcDbEntity
  8
Access .1
100
AcDbLine
 10
-6771.848698920317
 20
-25951.698273883
 30
0.0
 11
-6771.848698920317
 21
-25999.198273883
 31
0.0
  0
LINE
  5
B9
330
2
100
AcDbEntity
  8
Access .1
100
AcDbLine
 10
-6776.848698920318
 20
-26004.198273883
 30
0.0
 11
-6796.848698920317
 21
-26004.198273883
 31
0.0
  0
ARC
  5
BA
330
2
100
AcDbEntity
  8
Access .1
100
AcDbCircle
 10
-6776.848698920318
 20
-25999.198273883
 30
0.0
 40
5.0
100
AcDbArc
 50
270.0000006832169
 51
0.0
  0
LINE
  5
BB
330
2
100
AcDbEntity
  8
Access .1
100
AcDbLine
 10
-6776.848698920318
 20
-25899.198273883
 30
0.0
 11
-6796.848698920317
 21
-25899.198273883
 31
0.0
  0
LINE
  5
BC
330
2
100
AcDbEntity
  8
Access .1
100
AcDbLine
 10
-6771.848698920317
 20
-25951.698273883
 30
0.0
 11
-6771.848698920317
 21
-25904.198273883
 31
0.0
  0
ARC
  5
BD
330
2
100
AcDbEntity
  8
Access .1
100
AcDbCircle
 10
-6776.848698920318
 20
-25904.198273883
 30
0.0
 40
5.0
100
AcDbArc
 50
0.0
 51
90.00000250446868
  0
LINE
  5
BE
330
2
100
AcDbEntity
  8
Access .1
100
AcDbLine
 10
-6846.952885932036
 20
-25756.6970226623
 30
0.0
 11
-6741.094518012115
 21
-25756.69714473261
 31
0.0
  0
ARC
  5
BF
330
2
100
AcDbEntity
  8
Access .1
100
AcDbCircle
 10
-6809.925359076567
 20
-25792.79654048456
 30
0.0
 40
100.0
100
AcDbArc
 50
77.51299602577123
 51
85.98858464897334
  0
ARC
  5
C0
330
2
100
AcDbEntity
  8
Access .1
100
AcDbCircle
 10
-6809.925359076567
 20
-25792.79654048456
 30
0.0
 40
100.0
100
AcDbArc
 50
77.51299602577123
 51
85.98858464897334
  0
LWPOLYLINE
  5
C1
330
2
100
AcDbEntity
  8
Access .1
100
AcDbPolyline
 90
        4
 70
     0
 43
0.0
 10
-6855.900029486723
 20
-25662.62695430292
 10
-6863.375340766021
 20
-25663.82565425409
 10
-6872.65805560977
 20
-25665.19946406855
 10
-6880.496007269927
 20
-25666.30279658808
  0
LWPOLYLINE
  5
C2
330
2
100
AcDbEntity
  8
Access .1
100
AcDbPolyline
 90
        4
 70
     0
 43
0.0
 10
-6855.900029486723
 20
-25662.62695430292
 10
-6863.375340766021
 20
-25663.82565425409
 10
-6872.65805560977
 20
-25665.19946406855
 10
-6880.496007269927
 20
-25666.30279658808
  0
LWPOLYLINE
  5
C3
330
2
100
AcDbEntity
  8
Access .1
100
AcDbPolyline
 90
        6
 70
     0
 43
0.0
 10
-6837.738042182036
 20
-25667.20932124628
 10
-6837.799809760162
 20
-25665.05951045527
 10
-6837.795018500395
 20
-25662.94876216425
 10
-6837.726201361724
 20
-25660.90210078729
 10
-6837.647710150786
 20
-25659.56332515253
 10
-6837.43900043399
 20
-25656.96420405878
  0
ARC
  5
C4
330
2
100
AcDbEntity
  8
Access .1
100
AcDbCircle
 10
-6827.925328558989
 20
-25657.79654048456
 30
0.0
 40
9.549976348876953
100
AcDbArc
 50
317.996947002771
 51
0.0000825757114076
  0
LWPOLYLINE
  5
C5
330
2
100
AcDbEntity
  8
Access .1
100
AcDbPolyline
 90
       14
 70
     0
 43
0.0
 10
-6840.745427435942
 20
-25660.46801875605
 10
-6840.89716083438
 20
-25661.66385005487
 10
-6841.169835394928
 20
-25662.83914302363
 10
-6841.548436469145
 20
-25663.98486445917
 10
-6842.027135199614
 20
-25665.09216426386
 10
-6842.606572455473
 20
-25666.15002559198
 10
-6843.293217963285
 20
-25667.14621089472
 10
-6843.677983588285
 20
-25667.61374019159
 10
-6844.09116107852
 20
-25668.05658076777
 10
-6844.686864203521
 20
-25668.60150264276
 10
-6845.333592719146
 20
-25669.08368037714
 10
-6846.029942816802
 20
-25669.48913692011
 10
-6846.563359564848
 20
-25669.72549556269
 10
-6847.118565863677
 20
-25669.90551875604
  0
ARC
  5
C6
330
2
100
AcDbEntity
  8
Access .1
100
AcDbCircle
 10
-6827.521947211334
 20
-25657.79654048456
 30
0.0
 40
11.49989414215088
100
AcDbArc
 50
299.9448781907293
 51
140.0466490750789
  0
LWPOLYLINE
  5
C7
330
2
100
AcDbEntity
  8
Access .1
100
AcDbPolyline
 90
        7
 70
     0
 43
0.0
 10
-6847.249425238676
 20
-25669.95663569941
 10
-6846.178838080473
 20
-25669.858430133
 10
-6845.103673285551
 20
-25669.80947993768
 10
-6844.025487250395
 20
-25669.7981579162
 10
-6841.866185492583
 20
-25669.84906123651
 10
-6839.710423773833
 20
-25669.94601558222
 10
-6837.560918158598
 20
-25670.04214595331
  0
LWPOLYLINE
  5
C8
330
2
100
AcDbEntity
  8
Access .1
100
AcDbPolyline
 90
       35
 70
     0
 43
0.0
 10
-6847.107884711333
 20
-25756.69693110956
 10
-6850.207890814849
 20
-25756.70633052362
 10
-6853.269749945709
 20
-25756.77645991815
 10
-6854.275761908599
 20
-25756.82235835565
 10
-6856.807133978911
 20
-25757.00549434198
 10
-6859.313268012114
 20
-25757.30459712519
 10
-6861.74985248477
 20
-25757.73474238886
 10
-6863.00360614688
 20
-25758.01818965448
 10
-6864.241887396881
 20
-25758.34478877558
 10
-6865.463292426177
 20
-25758.71667598261
 10
-6866.38055927188
 20
-25759.03109859003
 10
-6868.092229193755
 20
-25759.70584224237
 10
-6869.370305365631
 20
-25760.29205440057
 10
-6870.84409076602
 20
-25761.06735347284
 10
-6872.589726752349
 20
-25762.14325068964
 10
-6873.824406928131
 20
-25763.0222179748
 10
-6875.006932562896
 20
-25763.97070430292
 10
-6875.638951605864
 20
-25764.52649043573
 10
-6876.867924994536
 20
-25765.71884273065
 10
-6877.610417670317
 20
-25766.51965449823
 10
-6878.319768256254
 20
-25767.34994624628
 10
-6879.435918158598
 20
-25768.80856441034
 10
-6880.255986517974
 20
-25770.02368281855
 10
-6881.029515570708
 20
-25771.30658076776
 10
-6881.641942328521
 20
-25772.4368297912
 10
-6882.200261420317
 20
-25773.57504390253
 10
-6882.734776801178
 20
-25774.78308223261
 10
-6883.220006293365
 20
-25776.00299190057
 10
-6883.697209662504
 20
-25777.34552119745
 10
-6884.129216498442
 20
-25778.71542476191
 10
-6884.542271918364
 20
-25780.20330928339
 10
-6885.102116889068
 20
-25782.59951900018
 10
-6885.563084906646
 20
-25785.03567622675
 10
-6886.053441351958
 20
-25788.27240108026
 10
-6886.495335883208
 20
-25791.7464001037
  0
LWPOLYLINE
  5
C9
330
2
100
AcDbEntity
  8
Access .1
100
AcDbPolyline
 90
        7
 70
     0
 43
0.0
 10
-6874.948491400786
 20
-25685.70666621698
 10
-6873.161076850005
 20
-25684.11590693964
 10
-6870.768040961333
 20
-25682.1680004455
 10
-6868.176060980864
 20
-25680.24746821893
 10
-6865.190587348052
 20
-25678.22079585565
 10
-6862.565251654692
 20
-25676.56823848261
 10
-6861.685918158599
 20
-25676.03924678339
  0
LWPOLYLINE
  5
CA
330
2
100
AcDbEntity
  8
Access .1
100
AcDbPolyline
 90
        4
 70
     0
 43
0.0
 10
-6855.531468695708
 20
-25673.56900142206
 10
-6860.231786078521
 20
-25675.47644160761
 10
-6862.736241644928
 20
-25676.43875239862
 10
-6866.608556098052
 20
-25677.84771846308
  0
LWPOLYLINE
  5
CB
330
2
100
AcDbEntity
  8
Access .1
100
AcDbPolyline
 90
        4
 70
     0
 43
0.0
 10
-6869.274663275786
 20
-25678.74441646112
 10
-6873.09573871524
 20
-25679.97055171503
 10
-6875.040501898833
 20
-25680.55490230097
 10
-6878.010136908598
 20
-25681.37609981073
  0
LWPOLYLINE
  5
CC
330
2
100
AcDbEntity
  8
Access .1
100
AcDbPolyline
 90
        4
 70
     0
 43
0.0
 10
-6880.382451361724
 20
-25691.3951122619
 10
-6878.648198432036
 20
-25689.43234370722
 10
-6876.836919135161
 20
-25687.53106807245
 10
-6874.948491400786
 20
-25685.70666621698
  0
LWPOLYLINE
  5
CD
330
2
100
AcDbEntity
  8
Access .1
100
AcDbPolyline
 90
       10
 70
     0
 43
0.0
 10
-6880.382787055083
 20
-25691.39746211542
 10
-6880.78711444766
 20
-25691.80600093378
 10
-6881.245518988677
 20
-25692.15274165644
 10
-6881.44858295352
 20
-25692.26669429315
 10
-6881.872044867583
 20
-25692.46615718378
 10
-6882.287053412504
 20
-25692.63223384393
 10
-6882.475102728911
 20
-25692.67419551386
 10
-6882.861729926176
 20
-25692.71865962519
 10
-6883.585179633207
 20
-25692.78387568964
 10
-6883.946080512115
 20
-25692.79654048456
  0
ARC
  5
CE
330
2
100
AcDbEntity
  8
Access .1
100
AcDbCircle
 10
-6883.423222846099
 20
-25688.79635737909
 30
0.0
 40
4.000192642211914
100
AcDbArc
 50
270.0009264012063
 51
319.4819978044885
  0
LINE
  5
CF
330
2
100
AcDbEntity
  8
Access .1
100
AcDbLine
 10
-6883.42303974063
 20
-25692.79654048456
 30
0.0
 11
-6883.421635932037
 21
-25692.79654048456
 31
0.0
  0
LINE
  5
D0
330
2
100
AcDbEntity
  8
Access .1
100
AcDbLine
 10
-6886.17972309024
 20
-25692.79654048456
 30
0.0
 11
-6883.421696967193
 21
-25692.79654048456
 31
0.0
  0
LWPOLYLINE
  5
D1
330
2
100
AcDbEntity
  8
Access .1
100
AcDbPolyline
 90
        5
 70
     0
 43
0.0
 10
-6880.382787055083
 20
-25691.39746211542
 10
-6880.943364447661
 20
-25691.93600581659
 10
-6881.675847357818
 20
-25692.37912105096
 10
-6882.096593207427
 20
-25692.55929683222
 10
-6882.292638129301
 20
-25692.63357661737
  0
ARC
  5
D2
330
2
100
AcDbEntity
  8
Access .1
100
AcDbCircle
 10
-6925.078557318755
 20
-25488.52749751581
 30
0.0
 40
198.5501403808594
100
AcDbArc
 50
282.5553810153797
 51
283.7148940055264
  0
ARC
  5
D3
330
2
100
AcDbEntity
  8
Access .1
100
AcDbCircle
 10
-6915.795842475005
 20
-25537.63467525019
 30
0.0
 40
148.5902709960937
100
AcDbArc
 50
288.2621067079494
 51
289.3310714467162
  0
ARC
  5
D4
330
2
100
AcDbEntity
  8
Access .1
100
AcDbCircle
 10
-6738.516026801177
 20
-25921.64102290643
 30
0.0
 40
274.17431640625
100
AcDbArc
 50
113.7669026856156
 51
114.1839752536957
  0
ARC
  5
D5
330
2
100
AcDbEntity
  8
Access .1
100
AcDbCircle
 10
-6936.272038764068
 20
-25481.2263195373
 30
0.0
 40
208.6019134521484
100
AcDbArc
 50
292.7714172987298
 51
294.0428234209994
  0
LINE
  5
D6
330
2
100
AcDbEntity
  8
Access .1
100
AcDbLine
 10
-6851.282018012113
 20
-25671.72931025995
 30
0.0
 11
-6850.834904975005
 21
-25671.52902339472
 31
0.0
  0
LWPOLYLINE
  5
D7
330
2
100
AcDbEntity
  8
Access .1
100
AcDbPolyline
 90
       28
 70
     0
 43
0.0
 10
-6813.999974555084
 20
-25692.68927119745
 10
-6815.229802435943
 20
-25692.52554439081
 10
-6816.42874652774
 20
-25692.262727008
 10
-6817.591710394927
 20
-25691.88815425409
 10
-6818.712956732817
 20
-25691.3941356994
 10
-6819.784825629302
 20
-25690.77822993769
 10
-6820.554021185943
 20
-25690.2356579162
 10
-6821.363103217193
 20
-25689.55954097284
 10
-6822.128728217193
 20
-25688.80371211542
 10
-6822.846684760161
 20
-25687.97241328729
 10
-6823.512852973052
 20
-25687.07092402948
 10
-6824.123204535552
 20
-25686.10556148065
 10
-6824.673741644926
 20
-25685.08343623651
 10
-6825.160741156645
 20
-25684.01236079706
 10
-6825.580663031646
 20
-25682.90057490839
 10
-6825.930333441802
 20
-25681.75677608026
 10
-6826.206914252349
 20
-25680.58978389276
 10
-6826.408055609771
 20
-25679.40847896112
 10
-6826.53192645938
 20
-25678.22161983027
 10
-6826.577245062896
 20
-25677.03759883417
 10
-6826.543370551177
 20
-25675.86444209589
 10
-6826.430333441802
 20
-25674.70959590448
 10
-6826.239018744536
 20
-25673.57965205683
 10
-6825.971074408599
 20
-25672.48034785761
 10
-6825.629002875395
 20
-25671.41629146112
 10
-6825.216374701567
 20
-25670.39087031854
 10
-6824.737706488676
 20
-25669.40603755487
 10
-6824.47528583438
 20
-25668.9290172912
  0
LWPOLYLINE
  5
D8
330
2
100
AcDbEntity
  8
Access .1
100
AcDbPolyline
 90
       31
 70
     0
 43
0.0
 10
-6813.999974555084
 20
-25692.68927119745
 10
-6815.226353949615
 20
-25692.52615474237
 10
-6816.422032660551
 20
-25692.26452754511
 10
-6817.581975287506
 20
-25691.89184688104
 10
-6818.700475043364
 20
-25691.4004223205
 10
-6819.769963568756
 20
-25690.7878429748
 10
-6820.53403217227
 20
-25690.25091670527
 10
-6821.341893500395
 20
-25689.57879756464
 10
-6822.106602973052
 20
-25688.82730220331
 10
-6822.824071234771
 20
-25688.00061152948
 10
-6823.490178412505
 20
-25687.10397456659
 10
-6824.100926703521
 20
-25686.14361690058
 10
-6824.652318305083
 20
-25685.12652705682
 10
-6825.140691107818
 20
-25684.06042598261
 10
-6825.56253559024
 20
-25682.95349238886
 10
-6825.914647406645
 20
-25681.81430171503
 10
-6826.194218939848
 20
-25680.65158198847
 10
-6826.398930853911
 20
-25679.47418330683
 10
-6826.52686054141
 20
-25678.29071162714
 10
-6826.576726264068
 20
-25677.10962031855
 10
-6826.547887152739
 20
-25675.93890498651
 10
-6826.440343207427
 20
-25674.78588984979
 10
-6826.254826850005
 20
-25673.65728877557
 10
-6825.992986029692
 20
-25672.55877803339
 10
-6825.65726215274
 20
-25671.49502681269
 10
-6825.251042670318
 20
-25670.46948359979
 10
-6824.778783148834
 20
-25669.48422359003
 10
-6824.245915717192
 20
-25668.53976558222
 10
-6823.347874945707
 20
-25667.19641231073
 10
-6822.241154975005
 20
-25665.79242061151
 10
-6820.82831317813
 20
-25664.18673823847
  0
LWPOLYLINE
  5
D9
330
2
100
AcDbEntity
  8
Access .1
100
AcDbPolyline
 90
        4
 70
     0
 43
0.0
 10
-6824.475621527739
 20
-25668.92910884393
 10
-6823.099339789457
 20
-25668.41803096308
 10
-6822.431615180083
 20
-25668.10958980097
 10
-6821.781438178129
 20
-25667.76150630488
  0
LINE
  5
DA
330
2
100
AcDbEntity
  8
Access .1
100
AcDbLine
 10
-6835.425359076568
 20
-25697.45764277948
 30
0.0
 11
-6835.425359076568
 21
-25706.69836543573
 31
0.0
  0
LWPOLYLINE
  5
DB
330
2
100
AcDbEntity
  8
Access .1
100
AcDbPolyline
 90
        6
 70
     0
 43
0.0
 10
-6835.452916449614
 20
-25688.258820758
 10
-6835.720860785553
 20
-25685.21551631464
 10
-6836.166508978911
 20
-25681.50055049433
 10
-6836.894810980864
 20
-25676.13733027948
 10
-6837.307225531645
 20
-25672.73162959589
 10
-6837.561406439849
 20
-25670.04217647089
  0
LWPOLYLINE
  5
DC
330
2
100
AcDbEntity
  8
Access .1
100
AcDbPolyline
 90
        7
 70
     0
 43
0.0
 10
-6835.452916449614
 20
-25688.258820758
 10
-6835.72006732852
 20
-25685.22308467402
 10
-6836.164281195708
 20
-25681.51754878534
 10
-6836.889531439848
 20
-25676.17743037714
 10
-6837.302007025787
 20
-25672.77981685175
 10
-6837.556523627348
 20
-25670.10296748651
 10
-6837.740208930083
 20
-25667.15902827753
  0
ARC
  5
DD
330
2
100
AcDbEntity
  8
Access .1
100
AcDbCircle
 10
-6888.950780219146
 20
-25692.09729121698
 30
0.0
 40
53.63551712036133
100
AcDbArc
 50
359.9465973853436
 51
4.103134273240958
  0
LINE
  5
DE
330
2
100
AcDbEntity
  8
Access .1
100
AcDbLine
 10
-6835.317204779693
 20
-25692.69238399042
 30
0.0
 11
-6835.31497699649
 21
-25692.14727900995
 31
0.0
  0
ARC
  5
DF
330
2
100
AcDbEntity
  8
Access .1
100
AcDbCircle
 10
-6775.770329779692
 20
-25697.29556392206
 30
0.0
 40
59.65505599975585
100
AcDbArc
 50
178.7270626674973
 51
180.1540531046484
  0
LINE
  5
E0
330
2
100
AcDbEntity
  8
Access .1
100
AcDbLine
 10
-6835.410588568755
 20
-25695.97012446894
 30
0.0
 11
-6835.329808539459
 21
-25693.40695308222
 31
0.0
  0
ARC
  5
E1
330
2
100
AcDbEntity
  8
Access .1
100
AcDbCircle
 10
-6875.833440131255
 20
-25692.32980464472
 30
0.0
 40
40.51791381835937
100
AcDbArc
 50
358.4766348398859
 51
359.4872774753227
  0
LWPOLYLINE
  5
E2
330
2
100
AcDbEntity
  8
Access .1
100
AcDbPolyline
 90
        3
 70
     0
 43
0.0
 10
-6810.077184027739
 20
-25692.79660151972
 10
-6812.223637885161
 20
-25692.78765986933
 10
-6812.930333441802
 20
-25692.76422236933
  0
LINE
  5
E3
330
2
100
AcDbEntity
  8
Access .1
100
AcDbLine
 10
-6813.911595648832
 20
-25692.6975719787
 30
0.0
 11
-6813.736821478912
 21
-25692.71280025019
 31
0.0
  0
ARC
  5
E4
330
2
100
AcDbEntity
  8
Access .1
100
AcDbCircle
 10
-6811.92581684024
 20
-25670.61737178339
 30
0.0
 40
22.16958236694336
100
AcDbArc
 50
265.3144260209903
 51
267.4030229674959
  0
ARC
  5
E5
330
2
100
AcDbEntity
  8
Access .1
100
AcDbCircle
 10
-6811.92581684024
 20
-25670.61737178339
 30
0.0
 40
22.16958236694336
100
AcDbArc
 50
265.3144260209903
 51
267.4030229674959
  0
LINE
  5
E6
330
2
100
AcDbEntity
  8
Access .1
100
AcDbLine
 10
-6813.911595648832
 20
-25692.6975719787
 30
0.0
 11
-6813.736821478912
 21
-25692.71280025019
 31
0.0
  0
LINE
  5
E7
330
2
100
AcDbEntity
  8
Access .1
100
AcDbLine
 10
-6813.925359076567
 20
-25692.696320758
 30
0.0
 11
-6813.911382025786
 21
-25692.69760249628
 31
0.0
  0
LINE
  5
E8
330
2
100
AcDbEntity
  8
Access .1
100
AcDbLine
 10
-6813.999974555084
 20
-25692.68927119745
 30
0.0
 11
-6813.925359076567
 21
-25692.696320758
 31
0.0
  0
ARC
  5
E9
330
2
100
AcDbEntity
  8
Access .1
100
AcDbCircle
 10
-6811.917668646881
 20
-25670.53131221308
 30
0.0
 40
22.25600814819336
100
AcDbArc
 50
265.311578166337
 51
267.3923133449433
  0
LINE
  5
EA
330
2
100
AcDbEntity
  8
Access .1
100
AcDbLine
 10
-6813.925359076567
 20
-25692.696320758
 30
0.0
 11
-6813.736790961333
 21
-25692.71280025019
 31
0.0
  0
LINE
  5
EB
330
2
100
AcDbEntity
  8
Access .1
100
AcDbLine
 10
-6813.999974555084
 20
-25692.68927119745
 30
0.0
 11
-6813.925359076567
 21
-25692.696320758
 31
0.0
  0
LINE
  5
EC
330
2
100
AcDbEntity
  8
Access .1
100
AcDbLine
 10
-6820.828343695708
 20
-25664.18670772089
 30
0.0
 11
-6820.824315375396
 21
-25664.18847774042
 31
0.0
  0
ARC
  5
ED
330
2
100
AcDbEntity
  8
Access .1
100
AcDbCircle
 10
-6809.925359076567
 20
-25792.79654048456
 30
0.0
 40
100.0
100
AcDbArc
 50
85.98865964895081
 51
90.00000250446868
  0
ARC
  5
EE
330
2
100
AcDbEntity
  8
Access .1
100
AcDbCircle
 10
-6809.925359076567
 20
-25792.79675410761
 30
0.0
 40
100.0002212524414
100
AcDbArc
 50
85.98866646242882
 51
89.99999567427954
  0
LINE
  5
EF
330
2
100
AcDbEntity
  8
Access .1
100
AcDbLine
 10
-6810.077184027739
 20
-25692.79660151972
 30
0.0
 11
-6809.925359076567
 21
-25692.79654048456
 31
0.0
  0
LINE
  5
F0
330
2
100
AcDbEntity
  8
Access .1
100
AcDbLine
 10
-6810.077184027739
 20
-25692.79660151972
 30
0.0
 11
-6809.925359076567
 21
-25692.79654048456
 31
0.0
  0
LINE
  5
F1
330
2
100
AcDbEntity
  8
Access .1
100
AcDbLine
 10
-6802.929967230864
 20
-25693.04150508417
 30
0.0
 11
-6802.92596942813
 21
-25693.04177974237
 31
0.0
  0
LINE
  5
F2
330
2
100
AcDbEntity
  8
Access .1
100
AcDbLine
 10
-6802.929967230864
 20
-25693.04150508417
 30
0.0
 11
-6802.92596942813
 21
-25693.04177974237
 31
0.0
  0
LINE
  5
F3
330
2
100
AcDbEntity
  8
Access .1
100
AcDbLine
 10
-6845.207433051176
 20
-25659.74411128534
 30
0.0
 11
-6844.986668891021
 21
-25659.62912105097
 31
0.0
  0
LINE
  5
F4
330
2
100
AcDbEntity
  8
Access .1
100
AcDbLine
 10
-6845.207433051176
 20
-25659.74411128534
 30
0.0
 11
-6844.986668891021
 21
-25659.62912105097
 31
0.0
  0
LWPOLYLINE
  5
F5
330
2
100
AcDbEntity
  8
Access .1
100
AcDbPolyline
 90
        6
 70
     0
 43
0.0
 10
-6846.063390082427
 20
-25660.68869136347
 10
-6845.625310248443
 20
-25660.57956050409
 10
-6844.429143256255
 20
-25660.31063960565
 10
-6843.059697455474
 20
-25660.047883258
 10
-6841.887303656645
 20
-25659.89175532831
 10
-6840.712560004302
 20
-25659.79010127557
  0
ARC
  5
F6
330
2
100
AcDbEntity
  8
Access .1
100
AcDbCircle
 10
-6853.137852973052
 20
-25644.1836254455
 30
0.0
 40
17.46909523010254
100
AcDbArc
 50
297.0104920278564
 51
305.6496071089338
  0
LINE
  5
F7
330
2
100
AcDbEntity
  8
Access .1
100
AcDbLine
 10
-6845.134435004301
 20
-25659.70639155878
 30
0.0
 11
-6844.985356635162
 21
-25659.62841914667
 31
0.0
  0
ARC
  5
F8
330
2
100
AcDbEntity
  8
Access .1
100
AcDbCircle
 10
-6853.137852973052
 20
-25644.1836254455
 30
0.0
 40
17.46909523010254
100
AcDbArc
 50
297.0104920278564
 51
305.6496071089338
  0
LWPOLYLINE
  5
F9
330
2
100
AcDbEntity
  8
Access .1
100
AcDbPolyline
 90
        3
 70
     0
 43
0.0
 10
-6849.636937445708
 20
-25661.48178218378
 10
-6852.70917255313
 20
-25662.07190059198
 10
-6855.900945014067
 20
-25662.62710689081
  0
ARC
  5
FA
330
2
100
AcDbEntity
  8
Access .1
100
AcDbCircle
 10
-6859.260686225005
 20
-25629.78781245722
 30
0.0
 40
33.12101364135742
100
AcDbArc
 50
286.8937321277405
 51
291.7987364719546
  0
ARC
  5
FB
330
2
100
AcDbEntity
  8
Access .1
100
AcDbCircle
 10
-6855.27670795352
 20
-25639.86148189081
 30
0.0
 40
22.28729438781738
100
AcDbArc
 50
291.9063347204501
 51
296.8596198579592
  0
ARC
  5
FC
330
2
100
AcDbEntity
  8
Access .1
100
AcDbCircle
 10
-6859.261296576568
 20
-25629.78613399042
 30
0.0
 40
33.122802734375
100
AcDbArc
 50
286.8928456685223
 51
291.7986353222259
  0
ARC
  5
FD
330
2
100
AcDbEntity
  8
Access .1
100
AcDbCircle
 10
-6855.27670795352
 20
-25639.86148189081
 30
0.0
 40
22.28729438781738
100
AcDbArc
 50
291.9063347204501
 51
296.8596198579592
  0
LINE
  5
FE
330
2
100
AcDbEntity
  8
Access .1
100
AcDbLine
 10
-6845.207310980865
 20
-25659.74405025019
 30
0.0
 11
-6845.206120795317
 21
-25659.7434704162
 31
0.0
  0
ARC
  5
FF
330
2
100
AcDbEntity
  8
Access .1
100
AcDbCircle
 10
-6827.925359076568
 20
-25657.79650996698
 30
0.0
 40
9.549976348876953
100
AcDbArc
 50
359.9999828007132
 51
175.0045550805525
  0
LWPOLYLINE
  5
100
330
2
100
AcDbEntity
  8
Access .1
100
AcDbPolyline
 90
        8
 70
     0
 43
0.0
 10
-6836.336766547271
 20
-25650.41104243769
 10
-6837.140355414458
 20
-25651.46704219355
 10
-6837.887181586333
 20
-25652.57272456659
 10
-6838.625218695708
 20
-25653.68707393183
 10
-6839.656529730864
 20
-25655.13000606073
 10
-6840.209050482818
 20
-25655.8164379455
 10
-6841.097203558989
 20
-25656.78787349237
 10
-6841.728154486723
 20
-25657.38787959589
  0
LWPOLYLINE
  5
101
330
2
100
AcDbEntity
  8
Access .1
100
AcDbPolyline
 90
        6
 70
     0
 43
0.0
 10
-6837.995244330475
 20
-25652.73516963495
 10
-6839.042393988677
 20
-25654.28738521112
 10
-6839.593633002349
 20
-25655.03921626581
 10
-6840.477727240631
 20
-25656.11670039667
 10
-6841.193883246489
 20
-25656.87658809198
 10
-6841.958257025786
 20
-25657.59033320917
  0
ARC
  5
102
330
2
100
AcDbEntity
  8
Access .1
100
AcDbCircle
 10
-6851.977513617583
 20
-25645.9641735412
 30
0.0
 40
15.34722805023193
100
AcDbArc
 50
308.977348838328
 51
318.7886759378597
  0
LINE
  5
103
330
2
100
AcDbEntity
  8
Access .1
100
AcDbLine
 10
-6840.719090766021
 20
-25660.03167842402
 30
0.0
 11
-6840.71307880313
 21
-25659.78549312128
 31
0.0
  0
LINE
  5
104
330
2
100
AcDbEntity
  8
Access .1
100
AcDbLine
 10
-6840.719182318754
 20
-25660.03363154901
 30
0.0
 11
-6840.713170355865
 21
-25659.78521846308
 31
0.0
  0
ARC
  5
105
330
2
100
AcDbEntity
  8
Access .1
100
AcDbCircle
 10
-6842.970708197661
 20
-25659.07501338495
 30
0.0
 40
2.367635250091552
100
AcDbArc
 50
333.4109262864365
 51
341.6011084749313
  0
LINE
  5
106
330
2
100
AcDbEntity
  8
Access .1
100
AcDbLine
 10
-6840.724248236724
 20
-25659.82254146113
 30
0.0
 11
-6840.712560004302
 21
-25659.79010127557
 31
0.0
  0
ARC
  5
107
330
2
100
AcDbEntity
  8
Access .1
100
AcDbCircle
 10
-6851.807164496489
 20
-25646.13452266229
 30
0.0
 40
15.10752010345459
100
AcDbArc
 50
305.8609999512035
 51
308.8815243079428
  0
LINE
  5
108
330
2
100
AcDbEntity
  8
Access .1
100
AcDbLine
 10
-6842.324010199615
 20
-25657.89489863886
 30
0.0
 11
-6842.315892523832
 21
-25657.88833735956
 31
0.0
  0
ARC
  5
109
330
2
100
AcDbEntity
  8
Access .1
100
AcDbCircle
 10
-6851.807164496489
 20
-25646.13452266229
 30
0.0
 40
15.10752010345459
100
AcDbArc
 50
305.8609999512035
 51
308.8815243079428
  0
ARC
  5
10A
330
2
100
AcDbEntity
  8
Access .1
100
AcDbCircle
 10
-6823.850285834381
 20
-25660.74206660761
 30
0.0
 40
16.20666313171386
100
AcDbArc
 50
140.3964630978013
 51
145.4998864891557
  0
ARC
  5
10B
330
2
100
AcDbEntity
  8
Access .1
100
AcDbCircle
 10
-6823.835759467193
 20
-25660.75369380487
 30
0.0
 40
16.22525405883789
100
AcDbArc
 50
140.3974333813881
 51
145.4955688317119
  0
LINE
  5
10C
330
2
100
AcDbEntity
  8
Access .1
100
AcDbLine
 10
-6784.425359076568
 20
-25706.69860957636
 30
0.0
 11
-6784.425359076568
 21
-25700.10241817011
 31
0.0
  0
LINE
  5
10D
330
2
100
AcDbEntity
  8
Access .1
100
AcDbLine
 10
-6784.425359076568
 20
-25700.10241817011
 30
0.0
 11
-6784.425359076568
 21
-25706.69848750605
 31
0.0
  0
LWPOLYLINE
  5
10E
330
2
100
AcDbEntity
  8
Access .1
100
AcDbPolyline
 90
       10
 70
     0
 43
0.0
 10
-6788.048619574614
 20
-25695.21908687128
 10
-6786.995854682036
 20
-25695.49591182245
 10
-6786.254460639067
 20
-25695.78842280878
 10
-6785.721959418364
 20
-25696.10574458612
 10
-6785.258122748442
 20
-25696.52459834589
 10
-6784.890385932036
 20
-25697.05572627558
 10
-6784.642247504301
 20
-25697.67239497675
 10
-6784.49075824649
 20
-25698.43100093378
 10
-6784.429967230865
 20
-25699.39383052362
 10
-6784.425359076568
 20
-25700.09268306268
  0
LWPOLYLINE
  5
10F
330
2
100
AcDbEntity
  8
Access .1
100
AcDbPolyline
 90
       10
 70
     0
 43
0.0
 10
-6788.048619574614
 20
-25695.21908687128
 10
-6786.995854682036
 20
-25695.49591182245
 10
-6786.254460639067
 20
-25695.78842280878
 10
-6785.721959418364
 20
-25696.10574458612
 10
-6785.258122748442
 20
-25696.52459834589
 10
-6784.890385932036
 20
-25697.05572627558
 10
-6784.642247504301
 20
-25697.67239497675
 10
-6784.49075824649
 20
-25698.43100093378
 10
-6784.429967230865
 20
-25699.39383052362
 10
-6784.425359076568
 20
-25700.09268306268
  0
LINE
  5
110
330
2
100
AcDbEntity
  8
Access .1
100
AcDbLine
 10
-6788.312749213286
 20
-25695.15997432245
 30
0.0
 11
-6788.048619574614
 21
-25695.21908687128
 31
0.0
  0
LINE
  5
111
330
2
100
AcDbEntity
  8
Access .1
100
AcDbLine
 10
-6740.836339301177
 20
-25756.69714473261
 30
0.0
 11
-6738.868718451567
 21
-25756.69714473261
 31
0.0
  0
LINE
  5
112
330
2
100
AcDbEntity
  8
Access .1
100
AcDbLine
 10
-6738.61035663516
 20
-25756.69714473261
 30
0.0
 11
-6738.475346869536
 21
-25756.69714473261
 31
0.0
  0
LINE
  5
113
330
2
100
AcDbEntity
  8
Access .2
100
AcDbLine
 10
-6441.848698920317
 20
-26136.698273883
 30
0.0
 11
-6441.848698920317
 21
-26058.32331202997
 31
0.0
  0
LINE
  5
114
330
2
100
AcDbEntity
  8
Access .2
100
AcDbLine
 10
-6564.624242133207
 20
-26136.698273883
 30
0.0
 11
-6441.848698920317
 21
-26136.698273883
 31
0.0
  0
LINE
  5
115
330
2
100
AcDbEntity
  8
Access .2
100
AcDbLine
 10
-6566.43018085391
 20
-26136.698273883
 30
0.0
 11
-6564.624242133207
 21
-26136.698273883
 31
0.0
  0
LWPOLYLINE
  5
116
330
2
100
AcDbEntity
  8
Access .2
100
AcDbPolyline
 90
        6
 70
     0
 43
0.0
 10
-6566.43018085391
 20
-26136.698273883
 10
-6565.952031439849
 20
-26136.66655086054
 10
-6565.539433783598
 20
-26136.58000300898
 10
-6565.189458197662
 20
-26136.45047114862
 10
-6564.888097113677
 20
-26136.28096126093
 10
-6564.625920600005
 20
-26136.06515620721
  0
LINE
  5
117
330
2
100
AcDbEntity
  8
Access .2
100
AcDbLine
 10
-6571.848698920317
 20
-26136.698273883
 30
0.0
 11
-6566.43018085391
 21
-26136.698273883
 31
0.0
  0
LINE
  5
118
330
2
100
AcDbEntity
  8
Access .2
100
AcDbLine
 10
-6565.055272406645
 20
-26136.09211848749
 30
0.0
 11
-6565.433354682037
 21
-26135.55804561151
 31
0.0
  0
LINE
  5
119
330
2
100
AcDbEntity
  8
Access .1
100
AcDbLine
 10
-6571.845494574614
 20
-26083.16279719843
 30
0.0
 11
-6571.849187201568
 21
-25791.86764644159
 31
0.0
  0
LWPOLYLINE
  5
11A
330
2
100
AcDbEntity
  8
Access .1
100
AcDbPolyline
 90
       35
 70
     0
 43
0.0
 10
-6571.849187201568
 20
-25791.77761958612
 10
-6571.87079364688
 20
-25788.01065181269
 10
-6571.919804877349
 20
-25786.15930293573
 10
-6572.046696967193
 20
-25783.81454585565
 10
-6572.264470404693
 20
-25781.48999141229
 10
-6572.416386908598
 20
-25780.31259273065
 10
-6572.782689398834
 20
-25778.13519404901
 10
-6573.264928168365
 20
-25775.99365352167
 10
-6573.529546088287
 20
-25775.01846431268
 10
-6574.107793158599
 20
-25773.19867061151
 10
-6574.79120380313
 20
-25771.42175410761
 10
-6575.52734882266
 20
-25769.81176875604
 10
-6576.192509955474
 20
-25768.55255244745
 10
-6576.921269721099
 20
-25767.33575557245
 10
-6577.711400336333
 20
-25766.17019771112
 10
-6578.195256537505
 20
-25765.52258418573
 10
-6579.205937689849
 20
-25764.3052685119
 10
-6580.3001759711
 20
-25763.16092036737
 10
-6581.122014350005
 20
-25762.40161250605
 10
-6581.977422064849
 20
-25761.69116328729
 10
-6582.976659125396
 20
-25760.95202754511
 10
-6584.018132514067
 20
-25760.27291987909
 10
-6585.09848529727
 20
-25759.65612910761
 10
-6586.108037299223
 20
-25759.15307734979
 10
-6587.148686713286
 20
-25758.70156978143
 10
-6588.213628119536
 20
-25758.3023388244
 10
-6589.301213568756
 20
-25757.95373652948
 10
-6590.455540961333
 20
-25757.64322017206
 10
-6591.63330585391
 20
-25757.38397334589
 10
-6592.868779486725
 20
-25757.16778682245
 10
-6594.11786395938
 20
-25757.00021480097
 10
-6595.491948432036
 20
-25756.86755488886
 10
-6597.921147650786
 20
-25756.74020503534
 10
-6600.017674750396
 20
-25756.70388911737
 10
-6601.618108100005
 20
-25756.69735835565
  0
LINE
  5
11B
330
2
100
AcDbEntity
  8
Access .2
100
AcDbLine
 10
-6441.848698920317
 20
-26058.32330440057
 30
0.0
 11
-6441.848698920317
 21
-25716.698273883
 31
0.0
  0
LINE
  5
11C
330
2
100
AcDbEntity
  8
Access .2
100
AcDbLine
 10
-6441.848698920317
 20
-26058.32330440057
 30
0.0
 11
-6441.848698920317
 21
-25716.698273883
 31
0.0
  0
LINE
  5
11D
330
2
100
AcDbEntity
  8
Access .2
100
AcDbLine
 10
-6441.848698920317
 20
-26057.77279017939
 30
0.0
 11
-6441.848698920317
 21
-25718.31158565057
 31
0.0
  0
LINE
  5
11E
330
2
100
AcDbEntity
  8
Access .2
100
AcDbLine
 10
-6441.848698920317
 20
-25714.94720576776
 30
0.0
 11
-6441.848698920317
 21
-25744.85003779901
 31
0.0
  0
LINE
  5
11F
330
2
100
AcDbEntity
  8
Access .2
100
AcDbLine
 10
-6441.848698920317
 20
-25744.85003779901
 30
0.0
 11
-6441.848698920317
 21
-25773.698273883
 31
0.0
  0
LINE
  5
120
330
2
100
AcDbEntity
  8
Access .2
100
AcDbLine
 10
-6441.848698920317
 20
-25705.42932246698
 30
0.0
 11
-6441.848698920317
 21
-25689.698273883
 31
0.0
  0
LINE
  5
121
330
2
100
AcDbEntity
  8
Access .2
100
AcDbLine
 10
-6441.848759955473
 20
-25716.70150874628
 30
0.0
 11
-6441.848698920317
 21
-25716.698273883
 31
0.0
  0
LINE
  5
122
330
2
100
AcDbEntity
  8
Access .2
100
AcDbLine
 10
-6441.848698920317
 20
-25715.30990718378
 30
0.0
 11
-6441.848698920317
 21
-25714.94711421503
 31
0.0
  0
LINE
  5
123
330
2
100
AcDbEntity
  8
Access .2
100
AcDbLine
 10
-6441.848698920317
 20
-25718.31158565057
 30
0.0
 11
-6441.848698920317
 21
-25715.30990718378
 31
0.0
  0
LINE
  5
124
330
2
100
AcDbEntity
  8
Access .2
100
AcDbLine
 10
-6441.848698920317
 20
-25713.43252681268
 30
0.0
 11
-6441.852238959381
 21
-25708.24841426386
 31
0.0
  0
LINE
  5
125
330
2
100
AcDbEntity
  8
Access .2
100
AcDbLine
 10
-6441.848698920317
 20
-25716.698273883
 30
0.0
 11
-6441.848698920317
 21
-25713.43252681268
 31
0.0
  0
LINE
  5
126
330
2
100
AcDbEntity
  8
Access .2
100
AcDbLine
 10
-6441.836003607817
 20
-25708.24832271112
 30
0.0
 11
-6441.848698920317
 21
-25705.42932246698
 31
0.0
  0
LINE
  5
127
330
2
100
AcDbEntity
  8
Access .2
100
AcDbLine
 10
-6441.852238959381
 20
-25708.24841426386
 30
0.0
 11
-6441.836003607817
 21
-25708.24832271112
 31
0.0
  0
LINE
  5
128
330
2
100
AcDbEntity
  8
Access .2
100
AcDbLine
 10
-6441.836003607817
 20
-25708.24832271112
 30
0.0
 11
-6441.781194037504
 21
-25714.94662593378
 31
0.0
  0
LINE
  5
129
330
2
100
AcDbEntity
  8
Access .2
100
AcDbLine
 10
-6441.848698920317
 20
-25714.94711421503
 30
0.0
 11
-6441.781194037504
 21
-25714.94662593378
 31
0.0
  0
LINE
  5
12A
330
2
100
AcDbEntity
  8
Access .2
100
AcDbLine
 10
-6441.848759955473
 20
-25716.69983027948
 30
0.0
 11
-6441.848698920317
 21
-25716.698273883
 31
0.0
  0
LINE
  5
12B
330
2
100
AcDbEntity
  8
Access .2
100
AcDbLine
 10
-6441.848698920317
 20
-25716.698273883
 30
0.0
 11
-6441.848698920317
 21
-25714.94735835565
 31
0.0
  0
LINE
  5
12C
330
2
100
AcDbEntity
  8
Access .1
  6
HIDDEN
100
AcDbLine
 10
-6319.740335656872
 20
-25159.11523163446
 30
0.0
 11
-6318.320967216845
 21
-25564.11274445797
 31
0.0
  0
LINE
  5
12D
330
2
100
AcDbEntity
  8
Access .1
  6
HIDDEN
100
AcDbLine
 10
-6388.320537334489
 20
-25564.35806739822
 30
0.0
 11
-6389.739905774517
 21
-25159.36055457471
 31
0.0
  0
LINE
  5
12E
330
2
100
AcDbEntity
  8
Access .1
  6
HIDDEN
100
AcDbLine
 10
-6441.848698920317
 20
-25703.95647917183
 30
0.0
 11
-6399.000070270582
 21
-25703.89968506651
 31
0.0
  0
LINE
  5
12F
330
2
100
AcDbEntity
  8
Access .1
  6
HIDDEN
100
AcDbLine
 10
-6318.101911422713
 20
-25761.14537826744
 30
0.0
 11
-6318.328226007174
 21
-25696.56958438766
 31
0.0
  0
LINE
  5
130
330
2
100
AcDbEntity
  8
Access .1
  6
HIDDEN
100
AcDbLine
 10
-6399.009203434474
 20
-25697.00911876948
 30
0.0
 11
-6398.924051453128
 21
-25761.25250470948
 31
0.0
  0
LINE
  5
131
330
2
100
AcDbEntity
  8
Access .1
  6
HIDDEN
100
AcDbLine
 10
-6398.926226269883
 20
-25761.25250759211
 30
0.0
 11
-6318.101911422713
 21
-25761.14537826744
 31
0.0
  0
LINE
  5
132
330
2
100
AcDbEntity
  8
Access .1
  6
HIDDEN
100
AcDbLine
 10
-6325.333308278686
 20
-25589.13747368392
 30
0.0
 11
-6324.955515991603
 21
-25696.93537331199
 31
0.0
  0
LINE
  5
133
330
2
100
AcDbEntity
  8
Access .1
  6
HIDDEN
100
AcDbLine
 10
-6381.132965601038
 20
-25589.33303111344
 30
0.0
 11
-6380.755663926173
 21
-25696.99094120577
 31
0.0
  0
LINE
  5
134
330
2
100
AcDbEntity
  8
Access .1
  6
HIDDEN
100
AcDbLine
 10
-6318.321216780311
 20
-25696.92876662639
 30
0.0
 11
-6399.009203434474
 21
-25697.00911876948
 31
0.0
  0
LINE
  5
135
330
2
100
AcDbEntity
  8
Access .1
  6
HIDDEN
100
AcDbLine
 10
-6323.303413443801
 20
-25569.13023681925
 30
0.0
 11
-6383.30304497321
 21
-25569.34051362518
 31
0.0
  0
LINE
  5
136
330
2
100
AcDbEntity
  8
Access .1
  6
HIDDEN
100
AcDbLine
 10
-6383.232952704567
 20
-25589.34039080165
 30
0.0
 11
-6323.233321175157
 21
-25589.13011399572
 31
0.0
  0
LINE
  5
137
330
2
100
AcDbEntity
  8
Access .1
  6
HIDDEN
100
AcDbLine
 10
-6383.30304497321
 20
-25569.34051362518
 30
0.0
 11
-6383.232952704567
 21
-25589.34039080165
 31
0.0
  0
ARC
  5
138
330
2
100
AcDbEntity
  8
Access .1
  6
HIDDEN
100
AcDbCircle
 10
-6379.786017899615
 20
-25564.32815702309
 30
0.0
 40
5.000000000000418
100
AcDbArc
 50
180.7007999694446
 51
270.20079996951
  0
ARC
  5
139
330
2
100
AcDbEntity
  8
Access .1
  6
HIDDEN
100
AcDbCircle
 10
-6383.320568040371
 20
-25564.34054433106
 30
0.0
 40
5.000000000000376
100
AcDbArc
 50
180.2007999695621
 51
270.20079996951
  0
LINE
  5
13A
330
2
100
AcDbEntity
  8
Access .1
  6
HIDDEN
100
AcDbLine
 10
-6323.233321175157
 20
-25589.13011399572
 30
0.0
 11
-6323.303413443801
 21
-25569.13023681925
 31
0.0
  0
ARC
  5
13B
330
2
100
AcDbEntity
  8
Access .1
  6
HIDDEN
100
AcDbCircle
 10
-6323.320936510961
 20
-25564.13026752513
 30
0.0
 40
4.999999999999921
100
AcDbArc
 50
270.20079996951
 51
0.2007999695621689
  0
ARC
  5
13C
330
2
100
AcDbEntity
  8
Access .1
  6
HIDDEN
100
AcDbCircle
 10
-6326.855486651718
 20
-25564.14265483311
 30
0.0
 40
4.999999999999921
100
AcDbArc
 50
270.20079996951
 51
359.7007999694989
  0
ARC
  5
13D
330
2
100
AcDbEntity
  8
Access .1
  6
HIDDEN
100
AcDbCircle
 10
-6331.34387066159
 20
-25466.1577831416
 30
0.0
 40
9.99999999999984
100
AcDbArc
 50
270.20079996951
 51
359.7007999694989
  0
ARC
  5
13E
330
2
100
AcDbEntity
  8
Access .1
  6
HIDDEN
100
AcDbCircle
 10
-6375.984538122448
 20
-25466.31423238518
 30
0.0
 40
9.999999999999927
100
AcDbArc
 50
180.7007999694446
 51
270.20079996951
  0
ARC
  5
13F
330
2
100
AcDbEntity
  8
Access .1
  6
HIDDEN
100
AcDbCircle
 10
-6339.731654301073
 20
-25482.63283149574
 30
0.0
 40
5.554448761245819
100
AcDbArc
 50
213.8272291055927
 51
326.5743708335044
  0
LINE
  5
140
330
2
100
AcDbEntity
  8
Access .1
  6
HIDDEN
100
AcDbLine
 10
-6375.949491988126
 20
-25476.31417097342
 30
0.0
 11
-6331.308824527267
 21
-25476.15772172984
 31
0.0
  0
LINE
  5
141
330
2
100
AcDbEntity
  8
Access .1
  6
HIDDEN
100
AcDbLine
 10
-6331.62053183
 20
-25478.65882950318
 30
0.0
 11
-6375.620261618234
 21
-25478.8130324942
 31
0.0
  0
LINE
  5
142
330
2
100
AcDbEntity
  8
Access .1
  6
HIDDEN
100
AcDbLine
 10
-6334.110002636762
 20
-25481.66757261323
 30
0.0
 11
-6373.109763130878
 21
-25481.80425253709
 31
0.0
  0
ARC
  5
143
330
2
100
AcDbEntity
  8
Access .1
  6
HIDDEN
100
AcDbCircle
 10
-6367.481483883424
 20
-25482.73008451849
 30
0.0
 40
5.554448761245819
100
AcDbArc
 50
213.8272291055927
 51
326.5743708335044
  0
LINE
  5
144
330
2
100
AcDbEntity
  8
Access .1
  6
HIDDEN
100
AcDbLine
 10
-6373.109763130878
 20
-25481.80425253709
 30
0.0
 11
-6373.120276971175
 21
-25478.80427096062
 31
0.0
  0
LINE
  5
145
330
2
100
AcDbEntity
  8
Access .1
  6
HIDDEN
100
AcDbLine
 10
-6375.620261618234
 20
-25478.8130324942
 30
0.0
 11
-6375.629023151814
 21
-25476.31304784714
 31
0.0
  0
LINE
  5
146
330
2
100
AcDbEntity
  8
Access .1
  6
HIDDEN
100
AcDbLine
 10
-6372.095675574382
 20
-25485.82219319711
 30
0.0
 11
-6372.109769272055
 21
-25481.80074792365
 31
0.0
  0
LINE
  5
147
330
2
100
AcDbEntity
  8
Access .1
  6
HIDDEN
100
AcDbLine
 10
-6344.345845992028
 20
-25485.72494017437
 30
0.0
 11
-6344.359939689702
 21
-25481.70349490091
 31
0.0
  0
LINE
  5
148
330
2
100
AcDbEntity
  8
Access .1
  6
HIDDEN
100
AcDbLine
 10
-6362.845732380264
 20
-25485.78977552286
 30
0.0
 11
-6362.859826077937
 21
-25481.7683302494
 31
0.0
  0
LINE
  5
149
330
2
100
AcDbEntity
  8
Access .1
  6
HIDDEN
100
AcDbLine
 10
-6362.837046090628
 20
-25488.26829033176
 30
0.0
 11
-6367.462017687687
 21
-25488.28449916888
 31
0.0
  0
ARC
  5
14A
330
2
100
AcDbEntity
  8
Access .1
  6
HIDDEN
100
AcDbCircle
 10
-6353.651938245008
 20
-25469.73598626927
 30
0.0
 40
18.50000000000018
100
AcDbArc
 50
240.2007999694713
 51
300.2007999695906
  0
LINE
  5
14B
330
2
100
AcDbEntity
  8
Access .1
  6
HIDDEN
100
AcDbLine
 10
-6339.712188105336
 20
-25488.18724614614
 30
0.0
 11
-6362.837046090628
 21
-25488.26829033176
 31
0.0
  0
LINE
  5
14C
330
2
100
AcDbEntity
  8
Access .1
  6
HIDDEN
100
AcDbLine
 10
-6334.110002636762
 20
-25481.66757261323
 30
0.0
 11
-6334.120516477059
 21
-25478.66759103676
 31
0.0
  0
LINE
  5
14D
330
2
100
AcDbEntity
  8
Access .1
  6
HIDDEN
100
AcDbLine
 10
-6335.095902797911
 20
-25485.69252250012
 30
0.0
 11
-6335.109996495585
 21
-25481.67107722667
 31
0.0
  0
LINE
  5
14E
330
2
100
AcDbEntity
  8
Access .1
  6
HIDDEN
100
AcDbLine
 10
-6331.62053183
 20
-25478.65882950318
 30
0.0
 11
-6331.62929336358
 21
-25476.15884485612
 31
0.0
  0
LINE
  5
14F
330
2
100
AcDbEntity
  8
Access .1
100
AcDbLine
 10
-6454.266646520037
 20
-25191.94269678435
 30
0.0
 11
-6454.266646520037
 21
-25021.45385098165
 31
0.0
  0
LINE
  5
150
330
2
100
AcDbEntity
  8
Access .1
100
AcDbLine
 10
-6459.266646520037
 20
-25191.94269678435
 30
0.0
 11
-6459.266646520037
 21
-25021.45385098165
 31
0.0
  0
LINE
  5
151
330
2
100
AcDbEntity
  8
Access .1
  6
HIDDEN
100
AcDbLine
 10
-6373.159741044872
 20
-25063.70231851206
 30
0.0
 11
-6373.159741044872
 21
-25043.85986035374
 31
0.0
  0
LINE
  5
152
330
2
100
AcDbEntity
  8
Access .1
  6
HIDDEN
100
AcDbLine
 10
-6337.124143370835
 20
-25043.85986035374
 30
0.0
 11
-6337.124143370835
 21
-25063.70231851206
 31
0.0
  0
LINE
  5
153
330
2
100
AcDbEntity
  8
Access .1
  6
HIDDEN
100
AcDbLine
 10
-6346.137026373028
 20
-25064.60774086972
 30
0.0
 11
-6346.137026373028
 21
-25043.85986035374
 31
0.0
  0
LINE
  5
154
330
2
100
AcDbEntity
  8
Access .1
  6
HIDDEN
100
AcDbLine
 10
-6364.146858042678
 20
-25064.3371681624
 30
0.0
 11
-6364.146858042678
 21
-25043.85986035374
 31
0.0
  0
LINE
  5
155
330
2
100
AcDbEntity
  8
Access .1
100
AcDbLine
 10
-6454.266646520037
 20
-25191.94269678435
 30
0.0
 11
-6459.266646520037
 21
-25191.94269678435
 31
0.0
  0
LINE
  5
156
330
2
100
AcDbEntity
  8
Access .1
100
AcDbLine
 10
-6459.266646520037
 20
-25123.96280003819
 30
0.0
 11
-6484.266646520037
 21
-25123.96280003819
 31
0.0
  0
LINE
  5
157
330
2
100
AcDbEntity
  8
Access .1
100
AcDbLine
 10
-6484.266646520037
 20
-25089.4337477278
 30
0.0
 11
-6459.266646520037
 21
-25089.4337477278
 31
0.0
  0
LINE
  5
158
330
2
100
AcDbEntity
  8
Access .1
100
AcDbLine
 10
-6484.266646520037
 20
-25123.96280003819
 30
0.0
 11
-6484.266646520037
 21
-25089.4337477278
 31
0.0
  0
LINE
  5
159
330
2
100
AcDbEntity
  8
Access .1
100
AcDbLine
 10
-6459.266646520037
 20
-25074.67817062916
 30
0.0
 11
-6459.266646520037
 21
-25109.20722293954
 31
0.0
  0
LINE
  5
15A
330
2
100
AcDbEntity
  8
Access .1
  6
HIDDEN
100
AcDbLine
 10
-6382.911521739532
 20
-25159.33662358134
 30
0.0
 11
-6377.939633276524
 21
-25084.83901996032
 31
0.0
  0
LINE
  5
15B
330
2
100
AcDbEntity
  8
Access .1
  6
HIDDEN
100
AcDbLine
 10
-6384.739936480399
 20
-25159.34303150755
 30
0.0
 11
-6385.016825027703
 21
-25080.33664400094
 31
0.0
  0
LINE
  5
15C
330
2
100
AcDbEntity
  8
Access .1
  6
HIDDEN
100
AcDbLine
 10
-6324.74030495099
 20
-25159.13275470162
 30
0.0
 11
-6325.017193498293
 21
-25080.12636719501
 31
0.0
  0
LINE
  5
15D
330
2
100
AcDbEntity
  8
Access .1
  6
HIDDEN
100
AcDbLine
 10
-6326.568719691856
 20
-25159.13916262783
 30
0.0
 11
-6332.062653420148
 21
-25084.6782378931
 31
0.0
  0
LINE
  5
15E
330
2
100
AcDbEntity
  8
Access .1
  6
HIDDEN
100
AcDbLine
 10
-6340.722683625005
 20
-25164.18879781065
 30
0.0
 11
-6338.740218974518
 21
-25159.18181928967
 31
0.0
  0
LINE
  5
15F
330
2
100
AcDbEntity
  8
Access .1
  6
HIDDEN
100
AcDbLine
 10
-6389.739905774517
 20
-25159.36055457471
 30
0.0
 11
-6370.74002245687
 21
-25159.2939669195
 31
0.0
  0
LINE
  5
160
330
2
100
AcDbEntity
  8
Access .1
  6
HIDDEN
100
AcDbLine
 10
-6374.768034799622
 20
-25151.30803450264
 30
0.0
 11
-6376.768022517268
 21
-25151.31504372951
 31
0.0
  0
LINE
  5
161
330
2
100
AcDbEntity
  8
Access .1
  6
HIDDEN
100
AcDbLine
 10
-6374.739997892164
 20
-25159.30798537323
 30
0.0
 11
-6374.768034799622
 21
-25151.30803450264
 31
0.0
  0
LINE
  5
162
330
2
100
AcDbEntity
  8
Access .1
  6
HIDDEN
100
AcDbLine
 10
-6376.739985609811
 20
-25159.31499460009
 30
0.0
 11
-6376.768022517268
 21
-25151.31504372951
 31
0.0
  0
LINE
  5
163
330
2
100
AcDbEntity
  8
Access .1
  6
HIDDEN
100
AcDbLine
 10
-6370.74002245687
 20
-25159.2939669195
 30
0.0
 11
-6368.722511672062
 21
-25164.28692698675
 31
0.0
  0
LINE
  5
164
330
2
100
AcDbEntity
  8
Access .1
  6
HIDDEN
100
AcDbLine
 10
-6368.722511672062
 20
-25164.28692698675
 30
0.0
 11
-6340.722683625005
 21
-25164.18879781065
 31
0.0
  0
LINE
  5
165
330
2
100
AcDbEntity
  8
Access .1
  6
HIDDEN
100
AcDbLine
 10
-6338.740218974518
 20
-25159.18181928967
 30
0.0
 11
-6319.740335656872
 21
-25159.11523163446
 31
0.0
  0
LINE
  5
166
330
2
100
AcDbEntity
  8
Access .1
  6
HIDDEN
100
AcDbLine
 10
-6332.740255821577
 20
-25159.16079160908
 30
0.0
 11
-6332.768292729035
 21
-25151.16084073849
 31
0.0
  0
LINE
  5
167
330
2
100
AcDbEntity
  8
Access .1
  6
HIDDEN
100
AcDbLine
 10
-6334.740243539224
 20
-25159.16780083594
 30
0.0
 11
-6334.768280446682
 21
-25151.16784996536
 31
0.0
  0
LINE
  5
168
330
2
100
AcDbEntity
  8
Access .1
  6
HIDDEN
100
AcDbLine
 10
-6334.768280446682
 20
-25151.16784996536
 30
0.0
 11
-6332.768292729035
 21
-25151.16084073849
 31
0.0
  0
LINE
  5
169
330
2
100
AcDbEntity
  8
Access .1
  6
HIDDEN
100
AcDbLine
 10
-6332.768292729035
 20
-25151.16084073849
 30
0.0
 11
-6334.768280446682
 21
-25151.16784996536
 31
0.0
  0
LINE
  5
16A
330
2
100
AcDbEntity
  8
Access .1
  6
HIDDEN
100
AcDbLine
 10
-6344.527587585648
 20
-25077.19472558046
 30
0.0
 11
-6328.027688915061
 21
-25077.13689945883
 31
0.0
  0
LINE
  5
16B
330
2
100
AcDbEntity
  8
Access .1
  6
HIDDEN
100
AcDbLine
 10
-6337.124143370835
 20
-25063.70231851206
 30
0.0
 11
-6342.124143370835
 21
-25065.70231851206
 31
0.0
  0
ARC
  5
16C
330
2
100
AcDbEntity
  8
Access .1
  6
HIDDEN
100
AcDbCircle
 10
-6342.315549287969
 20
-25054.93831100028
 30
0.0
 40
10.14604371495249
100
AcDbArc
 50
247.8738549093829
 51
299.0383823989146
  0
LINE
  5
16D
330
2
100
AcDbEntity
  8
Access .1
  6
HIDDEN
100
AcDbLine
 10
-6372.978904988858
 20
-25080.30489768849
 30
0.0
 11
-6337.055040345818
 21
-25080.17899765675
 31
0.0
  0
LINE
  5
16E
330
2
100
AcDbEntity
  8
Access .1
  6
HIDDEN
100
AcDbLine
 10
-6368.159741044872
 20
-25065.70231851206
 30
0.0
 11
-6373.159741044872
 21
-25063.70231851206
 31
0.0
  0
LINE
  5
16F
330
2
100
AcDbEntity
  8
Access .1
  6
HIDDEN
100
AcDbLine
 10
-6382.027357291528
 20
-25077.32614858417
 30
0.0
 11
-6365.527458620941
 21
-25077.26832246254
 31
0.0
  0
ARC
  5
170
330
2
100
AcDbEntity
  8
Access .1
  6
HIDDEN
100
AcDbCircle
 10
-6367.968335127738
 20
-25054.93831100028
 30
0.0
 40
10.1460437149524
100
AcDbArc
 50
240.9616176010854
 51
292.1261450906171
  0
ARC
  5
171
330
2
100
AcDbEntity
  8
Access .1
  6
HIDDEN
100
AcDbCircle
 10
-6372.961381921698
 20
-25085.30486698261
 30
0.0
 40
4.999999999999919
100
AcDbArc
 50
90.20079996951004
 51
174.654032925301
  0
ARC
  5
172
330
2
100
AcDbEntity
  8
Access .1
  6
HIDDEN
100
AcDbCircle
 10
-6382.016843451232
 20
-25080.32613016064
 30
0.0
 40
2.999999999999953
100
AcDbArc
 50
90.20079996951004
 51
180.2007999695621
  0
LINE
  5
173
330
2
100
AcDbEntity
  8
Access .1
  6
HIDDEN
100
AcDbLine
 10
-6344.517037149691
 20
-25080.20514923158
 30
0.0
 11
-6344.567864277173
 21
-25065.70231851206
 31
0.0
  0
LINE
  5
174
330
2
100
AcDbEntity
  8
Access .1
  6
HIDDEN
100
AcDbLine
 10
-6365.516908184985
 20
-25080.27874611366
 30
0.0
 11
-6365.567993242672
 21
-25065.70231851206
 31
0.0
  0
ARC
  5
175
330
2
100
AcDbEntity
  8
Access .1
  6
HIDDEN
100
AcDbCircle
 10
-6354.655793737295
 20
-25032.11349189883
 30
0.0
 40
33.59234456819518
100
AcDbArc
 50
253.5883490446642
 51
284.6902014427836
  0
LINE
  5
176
330
2
100
AcDbEntity
  8
Access .1
  6
HIDDEN
100
AcDbLine
 10
-6342.124143370835
 20
-25065.70231851206
 30
0.0
 11
-6368.159741044872
 21
-25065.70231851206
 31
0.0
  0
ARC
  5
177
330
2
100
AcDbEntity
  8
Access .1
  6
HIDDEN
100
AcDbCircle
 10
-6337.037517278657
 20
-25085.17896695087
 30
0.0
 40
4.999999999999734
100
AcDbArc
 50
5.747567013805904
 51
90.20079996951004
  0
ARC
  5
178
330
2
100
AcDbEntity
  8
Access .1
  6
HIDDEN
100
AcDbCircle
 10
-6328.017175074764
 20
-25080.1368810353
 30
0.0
 40
2.99999999999995
100
AcDbArc
 50
0.2007999695621689
 51
90.20079996951004
  0
LINE
  5
179
330
2
100
AcDbEntity
  8
Access .1
100
AcDbLine
 10
-6459.266646520037
 20
-25021.45385098165
 30
0.0
 11
-6454.266646520037
 21
-25021.45385098165
 31
0.0
  0
LINE
  5
17A
330
2
100
AcDbEntity
  8
Access .1
  6
HIDDEN
100
AcDbLine
 10
-6373.159741044872
 20
-25043.85986035374
 30
0.0
 11
-6337.124143370835
 21
-25043.85986035374
 31
0.0
  0
LINE
  5
17B
330
2
100
AcDbEntity
  8
Access .1
  6
HIDDEN
100
AcDbLine
 10
-6342.251492282378
 20
-25043.85986035374
 30
0.0
 11
-6342.251492282378
 21
-25041.79149035509
 31
0.0
  0
LINE
  5
17C
330
2
100
AcDbEntity
  8
Access .1
  6
HIDDEN
100
AcDbLine
 10
-6345.017306050969
 20
-25041.79149035509
 30
0.0
 11
-6345.017306050969
 21
-25035.2841472098
 31
0.0
  0
LINE
  5
17D
330
2
100
AcDbEntity
  8
Access .1
  6
HIDDEN
100
AcDbLine
 10
-6368.721356631884
 20
-25041.79149035509
 30
0.0
 11
-6368.721356631884
 21
-25043.85986035374
 31
0.0
  0
LINE
  5
17E
330
2
100
AcDbEntity
  8
Access .1
  6
HIDDEN
100
AcDbLine
 10
-6365.266578364737
 20
-25041.79149035509
 30
0.0
 11
-6365.266578364737
 21
-25035.2841472098
 31
0.0
  0
LINE
  5
17F
330
2
100
AcDbEntity
  8
Access .1
  6
HIDDEN
100
AcDbLine
 10
-6342.251492282378
 20
-25041.79149035509
 30
0.0
 11
-6368.721356631884
 21
-25041.79149035509
 31
0.0
  0
LINE
  5
180
330
2
100
AcDbEntity
  8
Access .1
  6
HIDDEN
100
AcDbLine
 10
-6368.721356631884
 20
-25043.85986035374
 30
0.0
 11
-6342.251492282378
 21
-25043.85986035374
 31
0.0
  0
LINE
  5
181
330
2
100
AcDbEntity
  8
Access .1
  6
HIDDEN
100
AcDbLine
 10
-6441.848698920317
 20
-25759.1135401533
 30
0.0
 11
-6398.927123993952
 21
-25758.93440919645
 31
0.0
  0
LINE
  5
182
330
2
100
AcDbEntity
  8
Access .2
100
AcDbLine
 10
-6783.80597269041
 20
-25487.56651477134
 30
0.0
 11
-6778.881933925349
 21
-25488.43475565967
 31
0.0
  0
LINE
  5
183
330
2
100
AcDbEntity
  8
Access Grid
100
AcDbLine
 10
-6827.521947211334
 20
-25706.69827388299
 30
0.0
 11
-6682.11111446639
 21
-24882.03246176114
 31
0.0
  0
LINE
  5
186
330
2
100
AcDbEntity
  8
Access .2
100
AcDbLine
 10
-6778.881933925349
 20
-25488.43475565967
 30
0.0
 11
-6743.616537783655
 21
-25288.43475565967
 31
0.0
  0
LINE
  5
187
330
2
100
AcDbEntity
  8
Access .2
100
AcDbLine
 10
-6748.540576548716
 20
-25287.56651477134
 30
0.0
 11
-6743.616537783655
 21
-25288.43475565967
 31
0.0
  0
ARC
  5
188
330
2
100
AcDbEntity
  8
Access .2
100
AcDbCircle
 10
-6749.40881743705
 20
-25292.4905535364
 30
0.0
 40
5.0
100
AcDbArc
 50
80.00000000000547
 51
169.9999999999997
  0
LINE
  5
189
330
2
100
AcDbEntity
  8
Access .2
100
AcDbLine
 10
-6787.861770567137
 20
-25481.77423511794
 30
0.0
 11
-6754.33285620211
 21
-25291.62231264806
 31
0.0
  0
ARC
  5
18A
330
2
100
AcDbEntity
  8
Access .2
100
AcDbCircle
 10
-6782.937731802078
 20
-25482.64247600627
 30
0.0
 40
5.0
100
AcDbArc
 50
169.9999999999992
 51
260.0000000000055
  0
ENDSEC
  0
SECTION
  2
OBJECTS
  0
DICTIONARY
  5
9
330
0
100
AcDbDictionary
281
     1
  3
ACAD_COLOR
350
3B
  3
ACAD_GROUP
350
36
  3
ACAD_LAYOUT
350
F
  3
ACAD_MATERIAL
350
B
  3
ACAD_MLINESTYLE
350
37
  3
ACAD_PLOTSETTINGS
350
38
  3
ACAD_PLOTSTYLENAME
350
8
  3
ACAD_TABLESTYLE
350
3C
  3
ACAD_VISUALSTYLE
350
28
  3
AcDbVariableDictionary
350
1A6
  0
DICTIONARY
  5
29
330
25
100
AcDbDictionary
280
     1
281
     1
  0
DICTIONARY
  5
18
330
17
100
AcDbDictionary
280
     1
281
     1
  3
ACAD_LAYERFILTERS
360
19
  3
ACAD_LAYERSTATES
360
1A
  3
ACLYDICTIONARY
360
1B
  0
DICTIONARY
  5
3
330
2
100
AcDbDictionary
280
     1
281
     1
  3
ACAD_SORTENTS
360
18B
  0
DICTIONARY
  5
3B
102
{ACAD_REACTORS
330
9
102
}
330
9
100
AcDbDictionary
281
     1
  0
DICTIONARY
  5
36
102
{ACAD_REACTORS
330
9
102
}
330
9
100
AcDbDictionary
281
     1
  0
DICTIONARY
  5
F
102
{ACAD_REACTORS
330
9
102
}
330
9
100
AcDbDictionary
281
     1
  3
Layout1
350
14
  3
Model
350
E
  0
DICTIONARY
  5
B
102
{ACAD_REACTORS
330
9
102
}
330
9
100
AcDbDictionary
281
     1
  3
ByBlock
350
3A
  3
ByLayer
350
39
  3
Global
350
A
  0
DICTIONARY
  5
37
102
{ACAD_REACTORS
330
9
102
}
330
9
100
AcDbDictionary
281
     1
  3
Standard
350
3F
  0
DICTIONARY
  5
38
102
{ACAD_REACTORS
330
9
102
}
330
9
100
AcDbDictionary
281
     1
  0
ACDBDICTIONARYWDFLT
  5
8
102
{ACAD_REACTORS
330
9
102
}
330
9
100
AcDbDictionary
281
     1
  3
Normal
350
7
100
AcDbDictionaryWithDefault
340
7
  0
DICTIONARY
  5
3C
102
{ACAD_REACTORS
330
9
102
}
330
9
100
AcDbDictionary
281
     1
  3
Standard
350
40
  0
DICTIONARY
  5
28
102
{ACAD_REACTORS
330
9
102
}
330
9
100
AcDbDictionary
281
     1
  3
2dWireframe
350
27
  3
3D Hidden
350
1AE
  3
3dWireframe
350
42
  3
Basic
350
1AD
  3
Brighten
350
1B1
  3
ColorChange
350
1B5
  3
Conceptual
350
1AF
  3
Dim
350
1B0
  3
Facepattern
350
1B4
  3
Flat
350
1A9
  3
FlatWithEdges
350
1AA
  3
Gouraud
350
1AB
  3
GouraudWithEdges
350
1AC
  3
Linepattern
350
1B3
  3
Realistic
350
41
  3
Thicken
350
1B2
  0
DICTIONARY
  5
1A6
102
{ACAD_REACTORS
330
9
102
}
330
9
100
AcDbDictionary
281
     1
  3
CTABLESTYLE
350
1A7
  0
DICTIONARY
  5
19
102
{ACAD_REACTORS
330
18
102
}
330
18
100
AcDbDictionary
281
     1
  0
DICTIONARY
  5
1A
102
{ACAD_REACTORS
330
18
102
}
330
18
100
AcDbDictionary
281
     1
  0
DICTIONARY
  5
1B
102
{ACAD_REACTORS
330
18
102
}
330
18
100
AcDbDictionary
281
     1
1001
ACAD
1000
<All
  0
SORTENTSTABLE
  5
18B
102
{ACAD_REACTORS
330
3
102
}
330
3
100
AcDbSortentsTable
330
2
  0
LAYOUT
  5
14
102
{ACAD_XDICTIONARY
360
15
102
}
102
{ACAD_REACTORS
330
F
102
}
330
F
100
AcDbPlotSettings
  1

  2
none_device
  4
ISO_A4_(210.00_x_297.00_MM)
  6

 40
7.5
 41
20.0
 42
7.5
 43
20.0
 44
210.0
 45
297.0
 46
0.0
 47
0.0
 48
0.0
 49
0.0
140
0.0
141
0.0
142
1.0
143
1.0
 70
   688
 72
     1
 73
     1
 74
     5
  7
LCG Normal.ctb
 75
    16
147
1.0
 76
     0
 77
     2
 78
   300
148
0.0
149
0.0
100
AcDbLayout
  1
Layout1
 70
     1
 71
     1
 10
-20.0
 20
-7.5
 11
277.0
 21
202.5
 12
0.0
 22
0.0
 32
0.0
 14
25.69999999999999
 24
19.5
 34
0.0
 15
231.3
 25
175.5
 35
0.0
146
0.0
 13
0.0
 23
0.0
 33
0.0
 16
1.0
 26
0.0
 36
0.0
 17
0.0
 27
1.0
 37
0.0
 76
     0
330
11
1001
ACAD_PSEXT
1000
None
1000
None
1000
Not applicable
1000
The layout will not be plotted unless a new plotter configuration name is selected.
1070
     0
  0
LAYOUT
  5
E
102
{ACAD_REACTORS
330
F
102
}
330
F
100
AcDbPlotSettings
  1

  2
Adobe PDF
  4
A4
  6

 40
3.174999952316284
 41
3.174999952316284
 42
3.175003051757812
 43
3.17498779296875
 44
209.9733276367187
 45
297.0318298339844
 46
25.3965740749476
 47
70.31448423494875
 48
4459.497861080963
 49
1641.385426523477
140
6605.242672745349
141
4249.506158453842
142
1.0
143
10.0
 70
 11940
 72
     1
 73
     0
 74
     1
  7
LCG Normal.ctb
 75
     0
147
0.1332350255158074
 76
     0
 77
     2
 78
   300
148
7846.327554806961
149
26136.91165105195
100
AcDbLayout
  1
Model
 70
     1
 71
     0
 10
0.0
 20
0.0
 11
12.0
 21
9.0
 12
0.0
 22
0.0
 32
0.0
 14
0.0
 24
0.0
 34
0.0
 15
0.0
 25
0.0
 35
0.0
146
0.0
 13
0.0
 23
0.0
 33
0.0
 16
1.0
 26
0.0
 36
0.0
 17
0.0
 27
1.0
 37
0.0
 76
     0
330
2
331
26
1001
ACAD_PSEXT
1000
Adobe PDF
1000
Adobe PDF Converter
1000
Documents\*.pdf
1000

1070
     0
  0
MATERIAL
  5
3A
102
{ACAD_REACTORS
330
B
102
}
330
B
100
AcDbMaterial
  1
ByBlock
  0
MATERIAL
  5
39
102
{ACAD_REACTORS
330
B
102
}
330
B
100
AcDbMaterial
  1
ByLayer
  0
MATERIAL
  5
A
102
{ACAD_REACTORS
330
B
102
}
330
B
100
AcDbMaterial
  1
Global
  0
MLINESTYLE
  5
3F
102
{ACAD_REACTORS
330
37
102
}
330
37
100
AcDbMlineStyle
  2
STANDARD
 70
     0
  3

 62
   256
 51
90.0
 52
90.0
 71
     2
 49
0.5
 62
   256
  6
BYLAYER
 49
-0.5
 62
   256
  6
BYLAYER
  0
ACDBPLACEHOLDER
  5
7
102
{ACAD_REACTORS
330
8
102
}
330
8
  0
TABLESTYLE
  5
40
102
{ACAD_REACTORS
330
3C
102
}
330
3C
100
AcDbTableStyle
  3
Standard
 70
     0
 71
     0
 40
1.5
 41
1.5
280
     0
281
     0
  7
Standard
140
4.5
170
     2
 62
     0
 63
     7
283
     0
 90
        4
 91
        0
  1

274
    -2
284
     1
 64
     0
275
    -2
285
     1
 65
     0
276
    -2
286
     1
 66
     0
277
    -2
287
     1
 67
     0
278
    -2
288
     1
 68
     0
279
    -2
289
     1
 69
     0
  7
Standard
140
6.0
170
     5
 62
     0
 63
     7
283
     0
 90
        4
 91
        0
  1

274
    -2
284
     1
 64
     0
275
    -2
285
     1
 65
     0
276
    -2
286
     1
 66
     0
277
    -2
287
     1
 67
     0
278
    -2
288
     1
 68
     0
279
    -2
289
     1
 69
     0
  7
Standard
140
4.5
170
     5
 62
     0
 63
     7
283
     0
 90
        4
 91
        0
  1

274
    -2
284
     1
 64
     0
275
    -2
285
     1
 65
     0
276
    -2
286
     1
 66
     0
277
    -2
287
     1
 67
     0
278
    -2
288
     1
 68
     0
279
    -2
289
     1
 69
     0
  0
VISUALSTYLE
  5
27
102
{ACAD_REACTORS
330
28
102
}
330
28
100
AcDbVisualStyle
  2
2dWireframe
 70
     4
 71
     0
 72
     2
 73
     0
 90
        0
 40
-0.6
 41
-30.0
 62
     5
 63
     7
421
 16777215
 74
     1
 91
        4
 64
     7
 65
   257
 75
     1
175
     1
 42
1.0
 92
        0
 66
   257
 43
1.0
 76
     1
 77
     6
 78
     2
 67
     7
 79
     5
170
     0
171
     0
290
     0
174
     0
 93
        1
 44
0.0
173
     0
291
     0
 45
0.0
  0
VISUALSTYLE
  5
1AE
102
{ACAD_REACTORS
330
28
102
}
330
28
100
AcDbVisualStyle
  2
3D Hidden
 70
     6
 71
     1
 72
     2
 73
     2
 90
        0
 40
-0.6
 41
-30.0
 62
     5
 63
     7
421
 16777215
 74
     2
 91
        2
 64
     7
 65
   257
 75
     2
175
     1
 42
40.0
 92
        0
 66
   257
 43
1.0
 76
     1
 77
     6
 78
     2
 67
     7
 79
     3
170
     0
171
     0
290
     0
174
     0
 93
        1
 44
0.0
173
     0
291
     0
 45
0.0
  0
VISUALSTYLE
  5
42
102
{ACAD_REACTORS
330
28
102
}
330
28
100
AcDbVisualStyle
  2
3dWireframe
 70
     5
 71
     0
 72
     2
 73
     0
 90
        0
 40
-0.6
 41
-30.0
 62
     5
 63
     7
421
 16777215
 74
     1
 91
        4
 64
     7
 65
   257
 75
     1
175
     1
 42
1.0
 92
        0
 66
   257
 43
1.0
 76
     1
 77
     6
 78
     2
 67
     7
 79
     5
170
     0
171
     0
290
     0
174
     0
 93
        1
 44
0.0
173
     0
291
     0
 45
0.0
  0
VISUALSTYLE
  5
1AD
102
{ACAD_REACTORS
330
28
102
}
330
28
100
AcDbVisualStyle
  2
Basic
 70
     7
 71
     1
 72
     0
 73
     1
 90
        0
 40
-0.6
 41
-30.0
 62
     5
 63
     7
421
 16777215
 74
     0
 91
        4
 64
     7
 65
   257
 75
     1
175
     1
 42
1.0
 92
        8
 66
     7
 43
1.0
 76
     1
 77
     6
 78
     2
 67
     7
 79
     5
170
     0
171
     0
290
     0
174
     0
 93
        1
 44
0.0
173
     0
291
     1
 45
0.0
  0
VISUALSTYLE
  5
1B1
102
{ACAD_REACTORS
330
28
102
}
330
28
100
AcDbVisualStyle
  2
Brighten
 70
    12
 71
     2
 72
     2
 73
     0
 90
        0
 40
-0.6
 41
-30.0
 62
     5
 63
     7
421
 16777215
 74
     1
 91
        4
 64
     7
 65
   257
 75
     1
175
     1
 42
1.0
 92
        8
 66
     7
 43
1.0
 76
     1
 77
     6
 78
     2
 67
     7
 79
     5
170
     0
171
     0
290
     0
174
     0
 93
        1
 44
50.0
173
     0
291
     1
 45
0.0
  0
VISUALSTYLE
  5
1B5
102
{ACAD_REACTORS
330
28
102
}
330
28
100
AcDbVisualStyle
  2
ColorChange
 70
    16
 71
     2
 72
     2
 73
     3
 90
        0
 40
-0.6
 41
-30.0
 62
     5
 63
     8
421
  8421504
 74
     1
 91
        4
 64
     7
 65
   257
 75
     1
175
     1
 42
1.0
 92
        8
 66
     8
424
  8421504
 43
1.0
 76
     1
 77
     6
 78
     2
 67
     7
 79
     5
170
     0
171
     0
290
     0
174
     0
 93
        1
 44
0.0
173
     0
291
     1
 45
0.0
  0
VISUALSTYLE
  5
1AF
102
{ACAD_REACTORS
330
28
102
}
330
28
100
AcDbVisualStyle
  2
Conceptual
 70
     9
 71
     3
 72
     2
 73
     0
 90
        0
 40
-0.6
 41
-30.0
 62
     5
 63
     7
421
 16777215
 74
     2
 91
        2
 64
     7
 65
   257
 75
     1
175
     1
 42
40.0
 92
        8
 66
     7
 43
1.0
 76
     1
 77
     6
 78
     2
 67
     7
 79
     3
170
     0
171
     0
290
     0
174
     0
 93
        1
 44
0.0
173
     0
291
     0
 45
0.0
  0
VISUALSTYLE
  5
1B0
102
{ACAD_REACTORS
330
28
102
}
330
28
100
AcDbVisualStyle
  2
Dim
 70
    11
 71
     2
 72
     2
 73
     0
 90
        0
 40
-0.6
 41
-30.0
 62
     5
 63
     7
421
 16777215
 74
     1
 91
        4
 64
     7
 65
   257
 75
     1
175
     1
 42
1.0
 92
        8
 66
     7
 43
1.0
 76
     1
 77
     6
 78
     2
 67
     7
 79
     5
170
     0
171
     0
290
     0
174
     0
 93
        1
 44
-50.0
173
     0
291
     1
 45
0.0
  0
VISUALSTYLE
  5
1B4
102
{ACAD_REACTORS
330
28
102
}
330
28
100
AcDbVisualStyle
  2
Facepattern
 70
    15
 71
     2
 72
     2
 73
     0
 90
        0
 40
-0.6
 41
-30.0
 62
     5
 63
     7
421
 16777215
 74
     1
 91
        4
 64
     7
 65
   257
 75
     1
175
     1
 42
1.0
 92
        8
 66
     7
 43
1.0
 76
     1
 77
     6
 78
     2
 67
     7
 79
     5
170
     0
171
     0
290
     0
174
     0
 93
        1
 44
0.0
173
     0
291
     1
 45
0.0
  0
VISUALSTYLE
  5
1A9
102
{ACAD_REACTORS
330
28
102
}
330
28
100
AcDbVisualStyle
  2
Flat
 70
     0
 71
     2
 72
     1
 73
     1
 90
        2
 40
-0.6
 41
30.0
 62
     5
 63
     7
421
 16777215
 74
     0
 91
        4
 64
     7
 65
   257
 75
     1
175
     1
 42
1.0
 92
        8
 66
     7
 43
1.0
 76
     1
 77
     6
 78
     2
 67
     7
 79
     5
170
     0
171
     0
290
     0
174
     0
 93
       13
 44
0.0
173
     0
291
     1
 45
0.0
  0
VISUALSTYLE
  5
1AA
102
{ACAD_REACTORS
330
28
102
}
330
28
100
AcDbVisualStyle
  2
FlatWithEdges
 70
     1
 71
     2
 72
     1
 73
     1
 90
        2
 40
-0.6
 41
30.0
 62
     5
 63
     7
421
 16777215
 74
     1
 91
        4
 64
     7
 65
   257
 75
     1
175
     1
 42
1.0
 92
        0
 66
   257
 43
1.0
 76
     1
 77
     6
 78
     2
 67
     7
 79
     5
170
     0
171
     0
290
     0
174
     0
 93
       13
 44
0.0
173
     0
291
     1
 45
0.0
  0
VISUALSTYLE
  5
1AB
102
{ACAD_REACTORS
330
28
102
}
330
28
100
AcDbVisualStyle
  2
Gouraud
 70
     2
 71
     2
 72
     2
 73
     1
 90
        2
 40
-0.6
 41
30.0
 62
     5
 63
     7
421
 16777215
 74
     0
 91
        4
 64
     7
 65
   257
 75
     1
175
     1
 42
1.0
 92
        0
 66
     7
 43
1.0
 76
     1
 77
     6
 78
     2
 67
     7
 79
     5
170
     0
171
     0
290
     0
174
     0
 93
       13
 44
0.0
173
     0
291
     1
 45
0.0
  0
VISUALSTYLE
  5
1AC
102
{ACAD_REACTORS
330
28
102
}
330
28
100
AcDbVisualStyle
  2
GouraudWithEdges
 70
     3
 71
     2
 72
     2
 73
     1
 90
        2
 40
-0.6
 41
30.0
 62
     5
 63
     7
421
 16777215
 74
     1
 91
        4
 64
     7
 65
   257
 75
     1
175
     1
 42
1.0
 92
        0
 66
   257
 43
1.0
 76
     1
 77
     6
 78
     2
 67
     7
 79
     5
170
     0
171
     0
290
     0
174
     0
 93
       13
 44
0.0
173
     0
291
     1
 45
0.0
  0
VISUALSTYLE
  5
1B3
102
{ACAD_REACTORS
330
28
102
}
330
28
100
AcDbVisualStyle
  2
Linepattern
 70
    14
 71
     2
 72
     2
 73
     0
 90
        0
 40
-0.6
 41
-30.0
 62
     5
 63
     7
421
 16777215
 74
     1
 91
        4
 64
     7
 65
   257
 75
     7
175
     7
 42
1.0
 92
        8
 66
     7
 43
1.0
 76
     1
 77
     6
 78
     2
 67
     7
 79
     5
170
     0
171
     0
290
     0
174
     0
 93
        1
 44
0.0
173
     0
291
     1
 45
0.0
  0
VISUALSTYLE
  5
41
102
{ACAD_REACTORS
330
28
102
}
330
28
100
AcDbVisualStyle
  2
Realistic
 70
     8
 71
     2
 72
     2
 73
     0
 90
        0
 40
-0.6
 41
-30.0
 62
     5
 63
     7
421
 16777215
 74
     1
 91
        0
 64
     7
 65
   257
 75
     1
175
     1
 42
1.0
 92
        8
 66
     8
424
  7895160
 43
1.0
 76
     1
 77
     6
 78
     2
 67
     7
 79
     5
170
     0
171
     0
290
     0
174
     0
 93
       13
 44
0.0
173
     0
291
     0
 45
0.0
  0
VISUALSTYLE
  5
1B2
102
{ACAD_REACTORS
330
28
102
}
330
28
100
AcDbVisualStyle
  2
Thicken
 70
    13
 71
     2
 72
     2
 73
     0
 90
        0
 40
-0.6
 41
-30.0
 62
     5
 63
     7
421
 16777215
 74
     1
 91
        4
 64
     7
 65
   257
 75
     1
175
     1
 42
1.0
 92
       12
 66
     7
 43
1.0
 76
     1
 77
     6
 78
     2
 67
     7
 79
     5
170
     0
171
     0
290
     0
174
     0
 93
        1
 44
0.0
173
     0
291
     1
 45
0.0
  0
DICTIONARYVAR
  5
1A7
102
{ACAD_REACTORS
330
1A6
102
}
330
1A6
100
DictionaryVariables
280
     0
  1
STANDARD
  0
DICTIONARY
  5
15
330
14
100
AcDbDictionary
280
     1
281
     1
  3
ADSK_XREC_LAYOUTTHUMBNAIL
360
16
  0
XRECORD
  5
16
102
{ACAD_REACTORS
330
15
102
}
330
15
100
AcDbXrecord
280
     1
310
28000000B40000007F00000001000800000000004C590000000000000000000000010000000000000000000000000000FFFFFF000000000000000000000000000000000000000000000000000000000000000000330000006600000099000000CC000000FF00000000330000333300006633000099330000CC330000FF3300
310
0000660000336600006666000099660000CC660000FF66000000990000339900006699000099990000CC990000FF99000000CC000033CC000066CC000099CC0000CCCC0000FFCC000000FF000033FF000066FF000099FF0000CCFF0000FFFF000000003300330033006600330099003300CC003300FF003300003333003333
310
33006633330099333300CC333300FF33330000663300336633006666330099663300CC663300FF66330000993300339933006699330099993300CC993300FF99330000CC330033CC330066CC330099CC3300CCCC3300FFCC330000FF330033FF330066FF330099FF3300CCFF3300FFFF330000006600330066006600660099
310
006600CC006600FF00660000336600333366006633660099336600CC336600FF33660000666600336666006666660099666600CC666600FF66660000996600339966006699660099996600CC996600FF99660000CC660033CC660066CC660099CC6600CCCC6600FFCC660000FF660033FF660066FF660099FF6600CCFF6600
310
FFFF660000009900330099006600990099009900CC009900FF00990000339900333399006633990099339900CC339900FF33990000669900336699006666990099669900CC669900FF66990000999900339999006699990099999900CC999900FF99990000CC990033CC990066CC990099CC9900CCCC9900FFCC990000FF99
310
0033FF990066FF990099FF9900CCFF9900FFFF99000000CC003300CC006600CC009900CC00CC00CC00FF00CC000033CC003333CC006633CC009933CC00CC33CC00FF33CC000066CC003366CC006666CC009966CC00CC66CC00FF66CC000099CC003399CC006699CC009999CC00CC99CC00FF99CC0000CCCC0033CCCC0066CC
310
CC0099CCCC00CCCCCC00FFCCCC0000FFCC0033FFCC0066FFCC0099FFCC00CCFFCC00FFFFCC000000FF003300FF006600FF009900FF00CC00FF00FF00FF000033FF003333FF006633FF009933FF00CC33FF00FF33FF000066FF003366FF006666FF009966FF00CC66FF00FF66FF000099FF003399FF006699FF009999FF00CC
310
99FF00FF99FF0000CCFF0033CCFF0066CCFF0099CCFF00CCCCFF00FFCCFF0000FFFF0033FFFF0066FFFF0099FFFF00CCFFFF00FFFFFF00000000000D0D0D001A1A1A00282828003535350043434300505050005D5D5D006B6B6B00787878008686860093939300A1A1A100AEAEAE00BBBBBB00C9C9C900D6D6D600E4E4E400
310
F1F1F100FFFFFF0000000000000000000000000000000000000000000000000000000000000000000000000000000000F5F5F5F5F5F5F5F5F5F5F5F5F5F5F5F5F5F5F5F5F5F5F5F5F5F5F5F5F5F5F5F5F5F5F5F5F5F5F5F5F5F5F5F5F5F5F5F5F5F5F5F5F5F5F5F5F5F5F5F5F5F5F5F5F5F5F5F5F5F5F5F5F5F5F5F5F5F5F5
310
F5F5F5F5F5F5F5F5F5F5F5F5F5F5F5F5F5F5F5F5F5F5F5F5F5F5F5F5F5F5F5F5F5F5F5F5F5F5F5F5F5F5F5F5F5F5F5F5F5F5F5F5F5F5F5F5F5F5F5F5F5F5F5F5F5F5F5F5F5F5F5F5F5F5F5F5F5F5F5F5F5F5F5F5F5F5F5F5F5F5F5F5F5F5F5F5F5F5F5F5F5F5E2E2E2E2E2E2E2E2E2E2E2E2E2E2E2E2E2E2E2E2E2E2E2E2E2
310
E2E2E2E2E2E2E2E2E2E2E2E2E2E2E2E2E2E2E2E2E2E2E2E2E2E2E2E2E2E2E2E2E2E2E2E2E2E2E2E2E2E2E2E2E2E2E2E2E2E2E2E2E2E2E2E2E2E2E2E2E2E2E2E2E2E2E2E2E2E2E2E2E2E2E2E2E2E2E2E2E2E2E2E2E2E2E2E2E2E2E2E2E2E2E2E2E2E2E2E2E2E2E2E2E2E2E2E2E2E2E2E2E2E2E2E2E2E2E2E2E2E2E2E2E2E2E2
310
E2E2E2E2E2E2E2E2E2E2E2E2E2E2E2E2E2E2E2E2E2E2E2E2E2E2F5F5E2E2E2E2E2E2E2E2E2E2E2E2E2E2E2E2E2E2E2E2E2E2E2E2E2E2E2E2E2E2E2E2E2E2E2E2E2E2E2E2E2E2E2E2E2E2E2E2E2E2E2E2E2E2E2E2E2E2E2E2E2E2E2E2E2E2E2E2E2E2E2E2E2E2E2E2E2E2E2E2E2E2E2E2E2E2E2E2E2E2E2E2E2E2E2E2E2E2E2
310
E2E2E2E2E2E2E2E2E2E2E2E2E2E2E2E2E2E2E2E2E2E2E2E2E2E2E2E2E2E2E2E2E2E2E2E2E2E2E2E2E2E2E2E2E2E2E2E2E2E2E2E2E2E2E2E2E2E2E2E2E2E2E2E2E2E2E2E2E2E2E2E2E2E2E2E2E2E2E2F5F5E2E2E2E2E2E2E2E2E2E2E2E2E2E2E2E2E2E2E2E2E2E2E2E2E2E2E2E2E2E2E2E2E2E2E2E2E2E2E2E2E2E2E2E2E2E2
310
E2E2E2E2E2E2E2E2E2E2E2E2E2E2E2E2E2E2E2E2E2E2E2E2E2E2E2E2E2E2E2E2E2E2E2E2E2E2E2E2E2E2E2E2E2E2E2E2E2E2E2E2E2E2E2E2E2E2E2E2E2E2E2E2E2E2E2E2E2E2E2E2E2E2E2E2E2E2E2E2E2E2E2E2E2E2E2E2E2E2E2E2E2E2E2E2E2E2E2E2E2E2E2E2E2E2E2E2E2E2E2E2E2E2E2E2E2E2E2E2E2E2E2E2E2E2E2
310
E2E2E2E2E2F5F5E2E2E2E2E2E2E2E2E2E2E2F5F5F5F5F5F5F5F5F5E2E2E2E2E2E2E2E2E2F5F5F5F5F5F5F5F5F5F5F5F5F5F5F5F5F5E2E2E2E2E2E2E2E2E2F5F5F5F5F5F5F5F5F5F5F5F5F5F5F5F5E2E2E2E2E2E2E2E2E2E2F5F5F5F5F5F5F5F5F5F5F5F5F5F5F5F5E2E2E2E2E2E2E2E2E2E2F5F5F5F5F5F5F5F5F5F5F5F5F5
310
F5F5F5E2E2E2E2E2E2E2E2E2F5F5F5F5F5F5F5F5F5F5F5F5F5F5F5F5F5E2E2E2E2E2E2E2E2E2F5F5F5F5F5F5F5F5F5E2E2E2E2E2E2E2E2E2E2E2F5F5E2E2E2E2E2E2E2E2E2E2E2F5E2E2E2E2E2E2E2E2E2E2E2E2E2E2E2E2E2E2E2E2E2E2E2E2E2E2E2E2E2E2E2E2E2E2E2E2E2E2E2E2E2E2E2E2E2E2E2E2E2E2E2E2E2E2E2
310
E2E2E2E2E2E2E2E2E2E2E2E2E2E2E2E2E2E2E2E2E2E2E2E2E2E2E2E2E2E2E2E2E2E2E2E2E2E2E2E2E2E2E2E2E2E2E2E2E2E2E2E2E2E2E2E2E2E2E2E2E2E2E2E2E2E2E2E2E2E2E2E2E2E2E2E2E2E2E2E2E2E2E2E2E2E2E2E2E2E2E2E2E2E2E2E2E2E2E2F5E2E2E2E2E2E2E2E2E2E2E2F5F5E2E2E2E2E2E2E2E2E2E2E2F5E2E2
310
E2E2E2E2E2E2E2E2E2E2E2E2E2E2E2E2E2E2E2E2E2E2E2E2E2E2E2E2E2E2E2E2E2E2E2E2E2E2E2E2E2E2E2E2E2E2E2E2E2E2E2E2E2E2E2E2E2E2E2E2E2E2E2E2E2E2E2E2E2E2E2E2E2E2E2E2E2E2E2E2E2E2E2E2E2E2E2E2E2E2E2E2E2E2E2E2E2E2E2E2E2E2E2E2E2E2E2E2E2E2E2E2E2E2E2E2E2E2E2E2E2E2E2E2E2E2E2
310
E2E2E2E2E2E2E2E2E2E2E2E2E2E2E2E2E2E2E2E2E2E2E2E2E2F5E2E2E2E2E2E2E2E2E2E2E2F5F5E2E2E2E2E2E2E2E2E2E2E2F5E2E2E2E2E2E2E2E2E2E2E2E2E2E2E2E2E2E2E2E2E2E2E2E2E2E2E2E2E2E2E2E2E2E2E2E2E2E2E2E2E2E2E2E2E2E2E2E2E2E2E2E2E2E2E2E2E2E2E2E2E2E2E2E2E2E2E2E2E2E2E2E2E2E2E2E2
310
E2E2E2E2E2E2E2E2E2E2E2E2E2E2E2E2E2E2E2E2E2E2E2E2E2E2E2E2E2E2E2E2E2E2E2E2E2E2E2E2E2E2E2E2E2E2E2E2E2E2E2E2E2E2E2E2E2E2E2E2E2E2E2E2E2E2E2E2E2E2E2E2E2E2E2E2E2E2F5E2E2E2E2E2E2E2E2E2E2E2F5F5E2E2E2E2E2E2E2E2E2E2E2F5E2E2E2E2E2E2E2E2E2E2E2E2E2E2E2E2E2E2E2E2E2E2E2
310
E2E2E2E2E2E2E2E2E2E2E2E2E2E2E2E2E2E2E2E2E2E2E2E2E2E2E2E2E2E2E2E2E2E2E2E2E2E2E2E2E2E2E2E2E2E2E2E2E2E2E2E2E2E2E2E2E2E2E2E2E2E2E2E2E2E2E2E2E2E2E2E2E2E2E2E2E2E2E2E2E2E2E2E2E2E2E2E2E2E2E2E2E2E2E2E2E2E2E2E2E2E2E2E2E2E2E2E2E2E2E2E2E2E2E2E2E2E2E2E2E2E2E2E2E2E2E2
310
E2E2E2E2F5E2E2E2E2E2E2E2E2E2E2E2F5F5E2E2E2E2E2E2E2E2E2E2E2F5E2E2E2E2E2E2E2E2E2E2E2E2E2E2E2E2E2E2E2E2E2E2E2E2E2E2E2E2E2E2E2E2E2E2E2E2E2E2E2E2E2E2E2E2E2E2E2E2E2E2E2E2E2E2E2E2E2E2E2E2E2E2E2E2E2E2E2E2E2E2E2E2E2E2E2E2E2E2E2E2E2E2E2E2E2E2E2E2E2E2E2E2E2E2E2E2E2
310
E2E2E2E2E2E2E2E2E2E2E2E2E2E2E2E2E2E2E2E2E2E2E2E2E2E2E2E2E2E2E2E2E2E2E2E2E2E2E2E2E2E2E2E2E2E2E2E2E2E2E2E2E2E2E2E2E2F5E2E2E2E2E2E2E2E2E2E2E2F5F5E2E2E2E2E2E2E2E2E2E2E2F5E2E2E2E2E2E2E2E2E2E2E2E2E2E2E2E2E2E2E2E2E2E2E2E2E2E2E2E2E2E2E2E2E2E2E2E2E2E2E2E2E2E2E2E2
310
E2E2E2E2E2E2E2E2E2E2E2E2E2E2E2E2E2E2E2E2E2E2E2E2E2E2E2E2E2E2E2E2E2E2E2E2E2E2E2E2E2E2E2E2E2E2E2E2E2E2E2E2E2E2E2E2E2E2E2E2E2E2E2E2E2E2E2E2E2E2E2E2E2E2E2E2E2E2E2E2E2E2E2E2E2E2E2E2E2E2E2E2E2E2E2E2E2E2E2E2E2E2E2E2E2E2E2E2E2E2F5E2E2E2E2E2E2E2E2E2E2E2F5F5E2E2E2
310
E2E2E2E2E2E2E2E2F5E2E2E2E2E2E2E2E2E2E2E2E2E2E2E2E2E2E2E2E2E2E2E2E2E2E2E2E2E2E2E2E2E2E2E2E2E2E2E2E2E2E2E2E2E2E2E2E2E2E2E2E2E2E2E2E2E2E2E2E2E2E2E2E2E2E2E2E2E2E2E2E2E2E2E2E2E2E2E2E2E2E2E2E2E2E2E2E2E2E2E2E2E2E2E2E2E2E2E2E2E2E2E2E2E2E2E2E2E2E2E2E2E2E2E2E2E2E2
310
E2E2E2E2E2E2E2E2E2E2E2E2E2E2E2E2E2E2E2E2E2E2E2E2E2E2E2E2E2E2E2E2E2E2E2E2F5E2E2E2E2E2E2E2E2E2E2E2F5F5E2E2E2E2E2E2E2E2E2E2E2E2E2E2E2E2E2E2E2E2E2E2E2E2E2E2E2E2E2E2E2E2E2E2E2E2E2E2E2E2E2E2E2E2E2E2E2E2E2E2E2E2E2E2E2E2E2E2E2E2E2E2E2E2E2E2E2E2E2E2E2E2E2E2E2E2E2
310
E2E2E2E2E2E2E2E2E2E2E2E2E2E2E2E2E2E2E2E2E2E2E2E2E2E2E2E2E2E2E2E2E2E2E2E2E2E2E2E2E2E2E2E2E2E2E2E2E2E2E2E2E2E2E2E2E2E2E2E2E2E2E2E2E2E2E2E2E2E2E2E2E2E2E2E2E2E2E2E2E2E2E2E2E2E2E2E2E2E2E2E2E2E2E2E2E2E2E2E2E2F5F5E2E2E2E2E2E2E2E2E2E2E2E2E2E2E2E2E2E2E2E2E2E2E2E2
310
E2E2E2E2E2E2E2E2E2E2E2E2E2E2E2E2E2E2E2E2E2E2E2E2E2E2E2E2E2E2E2E2E2E2E2E2E2E2E2E2E2E2E2E2E2E2E2E2E2E2E2E2E2E2E2E2E2E2E2E2E2E2E2E2E2E2E2E2E2E2E2E2E2E2E2E2E2E2E2E2E2E2E2E2E2E2E2E2E2E2E2E2E2E2E2E2E2E2E2E2E2E2E2E2E2E2E2E2E2E2E2E2E2E2E2E2E2E2E2E2E2E2E2E2E2E2E2
310
E2E2E2E2E2E2E2E2E2E2E2E2E2E2E2E2E2E2E2E2E2E2E2E2E2E2E2F5F5E2E2E2E2E2E2E2E2E2E2E2E2E2E2E2E2E2E2E2E2E2E2E2E2E2E2E2E2E2E2E2E2E2E2E2E2E2E2E2E2E2E2E2E2E2E2E2E2E2E2E2E2E2E2E2E2E2E2E2E2E2E2E2E2E2E2E2E2E2E2E2E2E2E2E2E2E2E2E2E2E2E2E2E2E2E2E2E2E2E2E2E2E2E2E2E2E2E2
310
E2E2E2E2E2E2E2E2E2E2E2E2E2E2E2E2E2E2E2E2E2E2E2E2E2E2E2E2E2E2E2E2E2E2E2E2E2E2E2E2E2E2E2E2E2E2E2E2E2E2E2E2E2E2E2E2E2E2E2E2E2E2E2E2E2E2E2E2E2E2E2E2E2E2E2E2E2E2E2E2F5F5E2E2E2E2E2E2E2E2E2E2E2E2E2E2E2E2E2E2E2E2E2E2E2E2E2E2E2E2E2E2E2E2E2E2E2E2E2E2E2E2E2E2E2E2E2
310
E2E2E2E2E2E2E2E2E2E2E2E2E2E2E2E2E2E2E2E2E2E2E2E2E2E2E2E2E2E2E2E2E2E2E2E2E2E2E2E2E2E2E2E2E2E2E2E2E2E2E2E2E2E2E2E2E2E2E2E2E2E2E2E2E2E2E2E2E2E2E2E2E2E2E2E2E2E2E2E2E2E2E2E2E2E2E2E2E2E2E2E2E2E2E2E2E2E2E2E2E2E2E2E2E2E2E2E2E2E2E2E2E2E2E2E2E2E2E2E2E2E2E2E2E2E2E2
310
E2E2E2E2E2E2F5F5E2E2E2E2E2E2E2E2E2E2E2E2E2E2E2E2E2E2E2E2E2E2E2E2E2E2E2F5F5F5F5F5F5F5F5F5F5F5F5F5F5F5F5F5F5F5F5F5F5F5F5F5F5F5F5F5F5F5F5F5F5F5F5F5F5F5F5F5F5F5F5F5F5F5F5F5F5F5F5F5F5F5F5F5F5F5F5F5F5F5F5F5F5F5F5F5F5F5F5F5F5F5F5F5F5F5F5F5F5F5F5F5F5F5F5F5F5F5F5
310
F5F5F5F5F5F5F5F5F5F5F5F5F5F5F5F5F5F5F5F5F5F5F5F5F5F5F5F5F5F5F5F5E2E2E2E2E2E2E2E2E2E2E2E2E2E2E2E2E2E2E2E2E2E2E2E2E2E2E2F5F5E2E2E2E2E2E2E2E2E2E2E2E2E2E2E2E2E2E2E2E2E2E2E2E2E2E2E2F5E2E2E2E2E2E2E2E2E2E2E2E2E2E2E2E2E2E2E2E2E2E2E2E2E2E2E2E2E2E2E2E2E2E2E2E2E2E2
310
E2E2E2E2E2E2E2E2E2E2E2E2E2E2E2E2E2E2E2E2E2E2E2E2E2E2E2E2E2E2E2E2E2E2E2E2E2E2E2E2E2E2E2E2E2E2E2E2E2E2E2E2E2E2E2E2E2E2E2E2E2E2E2E2E2E2E2E2E2E2E2E2E2E2E2E2E2E2E2E2E2E2E2E2F5E2E2E2E2E2E2E2E2E2E2E2E2E2E2E2E2E2E2E2E2E2E2E2E2E2E2E2F5F5E2E2E2E2E2E2E2E2E2E2E2E2E2
310
E2E2E2E2E2E2E2E2E2E2E2E2E2E2F5E2E2E2E2E2E2E2E2E2E2E2E2E2E2E2E2E2E2E2E2E2E2E2E2E2E2E2E2E2E2E2E2E2E2E2E2E2E2E2E2E2E2E2E2E2E2E2E2E2E2E2E2E2E2E2E2E2E2E2E2E2E2E2E2E2E2E2E2E2E2E2E2E2E2E2E2E2E2E2E2E2E2E2E2E2E2E2E2E2E2E2E2E2E2E2E2E2E2E2E2E2E2E2E2E2E2E2E2E2E2E2E2
310
E2E2E2E2E2E2E2E2E2E2F5E2E2E2E2E2E2E2E2E2E2E2E2E2E2E2E2E2E2E2E2E2E2E2E2E2E2E2F5F5E2E2E2E2E2E2E2E2E2E2E2E2E2E2E2E2E2E2E2E2E2E2E2E2E2E2E2F5E2E2E2E2E2E2E2E2E2E2E2E2E2E2E2E2E2E2E2E2E2E2E2E2E2E2E2E2E2E2E2E2E2E2E2E2E2E2E2E2E2E2E2E2E2E2E2E2E2E2E2E2E2E2E2E2E2E2E2
310
E2E2E2E2E2E2E2E2E2E2E2E2E2E2E2E2E2E2E2E2E2E2E2E2E2E2E2E2E2E2E2E2E2E2E2E2E2E2E2E2E2E2E2E2E2E2E2E2E2E2E2E2E2E2E2E2E2E2E2E2E2E2E2F5E2E2E2E2E2E2E2E2E2E2E2E2E2E2E2E2E2E2E2E2E2E2E2E2E2E2E2F5F5E2E2E2E2E2E2E2E2E2E2E2F5E2E2E2E2E2E2E2E2E2E2E2E2E2E2E2F5E2E2E2E2E2E2
310
E2E2E2E2E2E2E2E2E2E2E2E2E2E2E2E2E2E2E2E2E2E2E2E2E2E2E2E2E2E2E2E2E2E2E2E2E2E2E2E2E2E2E2E2E2E2E2E2E2E2E2E2E2E2E2E2E2E2E2E2E2E2E2E2E2E2E2E2E2E2E2E2E2E2E2E2E2E2E2E2E2E2E2E2E2E2E2E2E2E2E2E2E2E2E2E2E2E2E2E2E2E2E2E2E2E2E2E2E2E2E2E2E2E2E2E2F5E2E2E2E2E2E2E2E2E2E2
310
E2E2E2E2E2F5E2E2E2E2E2E2E2E2E2E2E2F5F5E2E2E2E2E2E2E2E2E2E2E2F5E2E2E2E2E2E2E2E2E2E2E2E2E2E2E2F5E2E2E2E2E2E2E2E2E2E2E2E2E2E2E2E2E2E2E2E2E2E2E2E2E2E2E2E2E2E2E2E2E2E2E2E2E2E2E2E2E2E2E2E2E2E2E2E2E2E2E2E2E2E2E2E2E2E2E2E2E2E2E2E2E2E2E2E2E2E2E2E2E2E2E2E2E2E2E2E2
310
E2E2E2E2E2E2E2E2E2E2E2E2E2E2E2E2E2E2E2E2E2E2E2E2E2E2E2E2E2E2E2E2E2E2E2E2E2E2E2E2E2E2F5E2E2E2E2E2E2E2E2E2E2E2E2E2E2E2F5E2E2E2E2E2E2E2E2E2E2E2F5F5E2E2E2E2E2E2E2E2E2E2E2F5E2E2E2E2E2E2E2E2E2E2E2E2E2E2E2F5E2E2E2E2E2E2E2E2E2E2E2E2E2E2E2E2E2E2E2E2E2E2E2E2E2E2E2
310
E2E2E2E2E2E2E2E2E2E2E2E2E2E2E2E2E2E2E2E2E2E2E2E2E2E2E2E2E2E2E2E2E2E2E2E2E2E2E2E2E2E2E2E2E2E2E2E2E2E2E2E2E2E2E2E2E2E2E2E2E2E2E2E2E2E2E2E2E2E2E2E2E2E2E2E2E2E2E2E2E2E2E2E2E2E2E2E2E2E2E2E2E2E2E2F5E2E2E2E2E2E2E2E2E2E2E2E2E2E2E2F5E2E2E2E2E2E2E2E2E2E2E2F5F5E2E2
310
E2E2E2E2E2E2E2E2E2F5E2E2E2E2E2E2E2E2E2E2E2E2E2E2E2F5E2E2E2E2E2E2E2E2E2E2E2E2E2E2E2E2E2E2E2E2E2E2E2E2E2E2E2E2E2E2E2E2E2E2E2E2E2E2E2E2E2E2E2E2E2E2E2E2E2E2E2E2E2E2E2E2E2E2E2E2E2E2E2E2E2E2E2E2E2E2E2E2E2E2E2E2E2E2E2E2E2E2E2E2E2E2E2E2E2E2E2E2E2E2E2E2E2E2E2E2E2
310
E2E2E2E2E2E2E2E2E2E2E2E2E2E2E2E2E2E2E2E2E2F5E2E2E2E2E2E2E2E2E2E2E2E2E2E2E2F5E2E2E2E2E2E2E2E2E2E2E2F5F5E2E2E2E2E2E2E2E2E2E2E2F5E2E2E2E2E2E2E2E2E2E2E2E2E2E2E2F5E2E2E2E2E2E2E2E2E2E2E2E2E2E2E2E2E2E2E2E2E2E2E2E2E2E2E2E2E2E2E2E2E2E2E2E2E2E2E2E2E2E2E2E2E2E2E2E2
310
E2E2E2E2E2E2E2E2E2E2E2E2E2E2E2E2E2E2E2E2E2E2E2E2E2E2E2E2E2E2E2E2E2E2E2E2E2E2E2E2E2E2E2E2E2E2E2E2E2E2E2E2E2E2E2E2E2E2E2E2E2E2E2E2E2E2E2E2E2E2E2E2E2E2F5E2E2E2E2E2E2E2E2E2E2E2E2E2E2E2F5E2E2E2E2E2E2E2E2E2E2E2F5F5E2E2E2E2E2E2E2E2E2E2E2F5E2E2E2E2E2E2E2E2E2E2E2
310
E2E2E2E2F5E2E2E2E2E2E2E2E2E2E2E2E2E2E2E2E2E2E2E2E2E2E2E2E2E2E2E2E2E2E2E2E2E2E2E2E2E2E2E2E2E2E2E2E2E2E2E2E2E2E2E2E2E2E2E2E2E2E2E2E2E2E2E2E2E2E2E2E2E2E2E2E2E2E2E2E2E2E2E2E2E2E2E2E2E2E2E2E2E2E2E2E2E2E2E2E2E2E2E2E2E2E2E2E2E2E2E2E2E2E2E2E2E2E2E2E2E2E2E2E2E2E2
310
F5E2E2E2E2E2E2E2E2E2E2E2E2E2E2E2F5E2E2E2E2E2E2E2E2E2E2E2F5F5E2E2E2E2E2E2E2E2E2E2E2F5E2E2E2E2E2E2E2E2E2E2E2E2E2E2E2F5E2E2E2E2E2E2E2E2E2E2E2E2E2E2E2E2E2E2E2E2E2E2E2E2E2E2E2E2E2E2E2E2E2E2E2E2E2E2E2E2E2E2E2E2E2E2E2E2E2E2E2E2E2E2E2E2E2E2E2E2E2E2E2E2E2E2E2E2E2
310
E2E2E2E2E2E2E2E2E2E2E2E2E2E2E2E2E2E2E2E2E2E2E2E2E2E2E2E2E2E2E2E2E2E2E2E2E2E2E2E2E2E2E2E2E2E2E2E2E2E2E2E2E2F5E2E2E2E2E2E2E2E2E2E2E2E2E2E2E2F5E2E2E2E2E2E2E2E2E2E2E2F5F5E2E2E2E2E2E2E2E2E2E2E2F5E2E2E2E2E2E2E2E2E2E2E2E2E2E2E2F5E2E2E2E2E2E2E2E2E2E2E2E2E2E2E2E2
310
E2E2E2E2E2E2E2E2E2E2E2E2E2E2E2E2E2E2E2E2E2E2E2E2E2E2E2E2E2E2E2E2E2E2E2E2E2E2E2E2E2E2E2E2E2E2E2E2E2E2E2E2E2E2E2E2E2E2E2E2E2E2E2E2E2E2E2E2E2E2E2E2E2E2E2E2E2E2E2E2E2E2E2E2E2E2E2E2E2E2E2E2E2E2E2E2E2E2E2E2E2E2E2E2E2E2F5E2E2E2E2E2E2E2E2E2E2E2E2E2E2E2F5E2E2E2E2
310
E2E2E2E2E2E2E2F5F5E2E2E2E2E2E2E2E2E2E2E2F5E2E2E2E2E2E2E2E2E2E2E2E2E2E2E2F5E2E2E2E2E2E2E2E2E2E2E2E2E2E2E2E2E2E2E2E2E2E2E2E2E2E2E2E2E2E2E2E2E2E2E2E2E2E2E2E2E2E2E2E2E2E2E2E2E2E2E2E2E2E2E2E2E2E2E2E2E2E2E2E2E2E2E2E2E2E2E2E2E2E2E2E2E2E2E2E2E2E2E2E2E2E2E2E2E2E2
310
E2E2E2E2E2E2E2E2E2E2E2E2E2E2E2E2E2E2E2E2E2E2E2E2E2E2E2E2E2E2E2E2F5E2E2E2E2E2E2E2E2E2E2E2E2E2E2E2F5E2E2E2E2E2E2E2E2E2E2E2F5F5E2E2E2E2E2E2E2E2E2E2E2F5E2E2E2E2E2E2E2E2E2E2E2E2E2E2E2F5E2E2E2E2E2E2E2E2E2E2E2E2E2E2E2E2E2E2E2E2E2E2E2E2E2E2E2E2E2E2E2E2E2E2E2E2E2
310
E2E2E2E2E2E2E2E2E2E2E2E2E2E2E2E2E2E2E2E2E2E2E2E2E2E2E2E2E2E2E2E2E2E2E2E2E2E2E2E2E2E2E2E2E2E2E2E2E2E2E2E2E2E2E2E2E2E2E2E2E2E2E2E2E2E2E2E2E2E2E2E2E2E2E2E2E2E2E2E2E2E2E2E2E2F5E2E2E2E2E2E2E2E2E2E2E2E2E2E2E2F5E2E2E2E2E2E2E2E2E2E2E2F5F5E2E2E2E2E2E2E2E2E2E2E2F5
310
E2E2E2E2E2E2E2E2E2E2E2E2E2E2E2F5E2E2E2E2E2E2E2E2E2E2E2E2E2E2E2E2E2E2E2E2E2E2E2E2E2E2E2E2E2E2E2E2E2E2E2E2E2E2E2E2E2E2E2E2E2E2E2E2E2E2E2E2E2E2E2E2E2E2E2E2E2E2E2E2E2E2E2E2E2E2E2E2E2E2E2E2E2E2E2E2E2E2E2E2E2E2E2E2E2E2E2E2E2E2E2E2E2E2E2E2E2E2E2E2E2E2E2E2E2E2E2
310
E2E2E2E2E2E2E2E2E2E2E2F5E2E2E2E2E2E2E2E2E2E2E2E2E2E2E2F5E2E2E2E2E2E2E2E2E2E2E2F5F5E2E2E2E2E2E2E2E2E2E2E2F5E2E2E2E2E2E2E2E2E2E2E2E2E2E2E2F5E2E2E2E2E2E2E2E2E2E2E2E2E2E2E2E2E2E2E2E2E2E2E2E2E2E2E2E2E2E2E2E2E2E2E2E2E2E2E2E2E2E2E2E2E2E2E2E2E2E2E2E2E2E2E2E2E2E2
310
E2E2E2E2E2E2E2E2E2E2E2E2E2E2E2E2E2E2E2E2E2E2E2E2E2E2E2E2E2E2E2E2E2E2E2E2E2E2E2E2E2E2E2E2E2E2E2E2E2E2E2E2E2E2E2E2E2E2E2E2E2E2E2E2F5E2E2E2E2E2E2E2E2E2E2E2E2E2E2E2F5E2E2E2E2E2E2E2E2E2E2E2F5F5E2E2E2E2E2E2E2E2E2E2E2F5E2E2E2E2E2E2E2E2E2E2E2E2E2E2E2F5E2E2E2E2E2
310
E2E2E2E2E2E2E2E2E2E2E2E2E2E2E2E2E2E2E2E2E2E2E2E2E2E2E2E2E2E2E2E2E2E2E2E2E2E2E2E2E2E2E2E2E2E2E2E2E2E2E2E2E2E2E2E2E2E2E2E2E2E2E2E2E2E2E2E2E2E2E2E2E2E2E2E2E2E2E2E2E2E2E2E2E2E2E2E2E2E2E2E2E2E2E2E2E2E2E2E2E2E2E2E2E2E2E2E2E2E2E2E2E2E2E2E2E2F5E2E2E2E2E2E2E2E2E2
310
E2E2E2E2E2E2F5E2E2E2E2E2E2E2E2E2E2E2F5F5E2E2E2E2E2E2E2E2E2E2E2F5E2E2E2E2E2E2E2E2E2E2E2E2E2E2E2F5E2E2E2E2E2E2E2E2E2E2E2E2E2E2E2E2E2E2E2E2E2E2E2E2E2E2E2E2E2E2E2E2E2E2E2E2E2E2E2E2E2E2E2E2E2E2E2E2E2E2E2E2E2E2E2E2E2E2E2E2E2E2E2E2E2E2E2E2E2E2E2E2E2E2E2E2E2E2E2
310
E2E2E2E2E2E2E2E2E2E2E2E2E2E2E2E2E2E2E2E2E2E2E2E2E2E2E2E2E2E2E2E2E2E2E2E2E2E2E2E2E2E2E2F5E2E2E2E2E2E2E2E2E2E2E2E2E2E2E2F5E2E2E2E2E2E2E2E2E2E2E2F5F5E2E2E2E2E2E2E2E2E2E2E2F5E2E2E2E2E2E2E2E2E2E2E2E2E2E2E2F5E2E2E2E2E2E2E2E2E2E2E2E2E2E2E2E2E2E2E2E2E2E2E2E2E2E2
310
E2E2E2E2E2E2E2E2E2E2E2E2E2E2E2E2E2E2E2E2E2E2E2E2E2E2E2E2E2E2E2E2E2E2E2E2E2E2E2E2E2E2E2E2E2E2E2E2E2E2E2E2E2E2E2E2E2E2E2E2E2E2E2E2E2E2E2E2E2E2E2E2E2E2E2E2E2E2E2E2E2E2E2E2E2E2E2E2E2E2E2E2E2E2E2E2F5E2E2E2E2E2E2E2E2E2E2E2E2E2E2E2F5E2E2E2E2E2E2E2E2E2E2E2F5F5E2
310
E2E2E2E2E2E2E2E2E2E2E2E2E2E2E2E2E2E2E2E2E2E2E2E2E2E2F5E2E2E2E2E2E2E2E2E2E2E2E2E2E2E2E2E2E2E2E2E2E2E2E2E2E2E2E2E2E2E2E2E2E2E2E2E2E2E2E2E2E2E2E2E2E2E2E2E2E2E2E2E2E2E2E2E2E2E2E2E2E2E2E2E2E2E2E2E2E2E2E2E2E2E2E2E2E2E2E2E2E2E2E2E2E2E2E2E2E2E2E2E2E2E2E2E2E2E2E2
310
E2E2E2E2E2E2E2E2E2E2E2E2E2E2E2E2E2E2E2E2E2E2F5E2E2E2E2E2E2E2E2E2E2E2E2E2E2E2E2E2E2E2E2E2E2E2E2E2E2E2F5F5E2E2E2E2E2E2E2E2E2E2E2E2E2E2E2E2E2E2E2E2E2E2E2E2E2E2E2F5E2E2E2E2E2E2E2E2E2E2E2E2E2E2E2E2E2E2E2E2E2E2E2E2E2E2E2E2E2E2E2E2E2E2E2E2E2E2E2E2E2E2E2E2E2E2E2
310
E2E2E2E2E2E2E2E2E2E2E2E2E2E2E2E2E2E2E2E2E2E2E2E2E2E2E2E2E2E2E2E2E2E2E2E2E2E2E2E2E2E2E2E2E2E2E2E2E2E2E2E2E2E2E2E2E2E2E2E2E2E2E2E2E2E2E2E2E2E2E2E2E2E2E2F5E2E2E2E2E2E2E2E2E2E2E2E2E2E2E2E2E2E2E2E2E2E2E2E2E2E2E2F5F5E2E2E2E2E2E2E2E2E2E2E2E2E2E2E2E2E2E2E2E2E2E2
310
E2E2E2E2E2F5E2E2E2E2E2E2E2E2E2E2E2E2E2E2E2E2E2E2E2E2E2E2E2E2E2E2E2E2E2E2E2E2E2E2E2E2E2E2E2E2E2E2E2E2E2E2E2E2E2E2E2E2E2E2E2E2E2E2E2E2E2E2E2E2E2E2E2E2E2E2E2E2E2E2E2E2E2E2E2E2E2E2E2E2E2E2E2E2E2E2E2E2E2E2E2E2E2E2E2E2E2E2E2E2E2E2E2E2E2E2E2E2E2E2E2E2E2E2E2E2E2
310
E2F5E2E2E2E2E2E2E2E2E2E2E2E2E2E2E2E2E2E2E2E2E2E2E2E2E2E2E2F5F5E2E2E2E2E2E2E2E2E2E2E2E2E2E2E2E2E2E2E2E2E2E2E2E2E2E2E2F5E2E2E2E2E2E2E2E2E2E2E2E2E2E2E2E2E2E2E2E2E2E2E2E2E2E2E2E2E2E2E2E2E2E2E2E2E2E2E2E2E2E2E2E2E2E2E2E2E2E2E2E2E2E2E2E2E2E2E2E2E2E2E2E2E2E2E2E2
310
E2E2E2E2E2E2E2E2E2E2E2E2E2E2E2E2E2E2E2E2E2E2E2E2E2E2E2E2E2E2E2E2E2E2E2E2E2E2E2E2E2E2E2E2E2E2E2E2E2E2E2E2E2E2F5E2E2E2E2E2E2E2E2E2E2E2E2E2E2E2E2E2E2E2E2E2E2E2E2E2E2E2F5F5E2E2E2E2E2E2E2E2E2E2E2E2E2E2E2E2E2E2E2E2E2E2E2E2E2E2E2F5E2E2E2E2E2E2E2E2E2E2E2E2E2E2E2
310
E2E2E2E2E2E2E2E2E2E2E2E2E2E2E2E2E2E2E2E2E2E2E2E2E2E2E2E2E2E2E2E2E2E2E2E2E2E2E2E2E2E2E2E2E2E2E2E2E2E2E2E2E2E2E2E2E2E2E2E2E2E2E2E2E2E2E2E2E2E2E2E2E2E2E2E2E2E2E2E2E2E2E2E2E2E2E2E2E2E2E2E2E2E2E2E2E2E2E2E2E2E2E2E2E2E2E2F5E2E2E2E2E2E2E2E2E2E2E2E2E2E2E2E2E2E2E2
310
E2E2E2E2E2E2E2E2F5F5E2E2E2E2E2E2E2E2E2E2E2E2E2E2E2E2E2E2E2E2E2E2E2E2E2E2E2F5E2E2E2E2E2E2E2E2E2E2E2E2E2E2E2E2E2E2E2E2E2E2E2E2E2E2E2E2E2E2E2E2E2E2E2E2E2E2E2E2E2E2E2E2E2E2E2E2E2E2E2E2E2E2E2E2E2E2E2E2E2E2E2E2E2E2E2E2E2E2E2E2E2E2E2E2E2E2E2E2E2E2E2E2E2E2E2E2E2
310
E2E2E2E2E2E2E2E2E2E2E2E2E2E2E2E2E2E2E2E2E2E2E2E2E2E2E2E2E2E2E2E2E2F5E2E2E2E2E2E2E2E2E2E2E2E2E2E2E2E2E2E2E2E2E2E2E2E2E2E2E2F5F5E2E2E2E2E2E2E2E2E2E2E2E2E2E2E2E2E2E2E2E2E2E2E2E2E2E2E2F5E2E2E2E2E2E2E2E2E2E2E2E2E2E2E2E2E2E2E2E2E2E2E2E2E2E2E2E2E2E2E2E2E2E2E2E2
310
E2E2E2E2E2E2E2E2E2E2E2E2E2E2E2E2E2E2E2E2E2E2E2E2E2E2E2E2E2E2E2E2E2E2E2E2E2E2E2E2E2E2E2E2E2E2E2E2E2E2E2E2E2E2E2E2E2E2E2E2E2E2E2E2E2E2E2E2E2E2E2E2E2E2E2E2E2E2E2E2E2E2E2E2E2E2F5E2E2E2E2E2E2E2E2E2E2E2E2E2E2E2E2E2E2E2E2E2E2E2E2E2E2E2F5F5E2E2E2E2E2E2E2E2E2E2E2
310
E2E2E2E2E2E2E2E2E2E2E2E2E2E2E2E2F5E2E2E2E2E2E2E2E2E2E2E2E2E2E2E2E2E2E2E2E2E2E2E2E2E2E2E2E2E2E2E2E2E2E2E2E2E2E2E2E2E2E2E2E2E2E2E2E2E2E2E2E2E2E2E2E2E2E2E2E2E2E2E2E2E2E2E2E2E2E2E2E2E2E2E2E2E2E2E2E2E2E2E2E2E2E2E2E2E2E2E2E2E2E2E2E2E2E2E2E2E2E2E2E2E2E2E2E2E2E2
310
E2E2E2E2E2E2E2E2E2E2E2E2F5E2E2E2E2E2E2E2E2E2E2E2E2E2E2E2E2E2E2E2E2E2E2E2E2E2E2E2F5F5E2E2E2E2E2E2E2E2E2E2E2E2E2E2E2E2E2E2E2E2E2E2E2E2E2E2E2F5E2E2E2E2E2E2E2E2E2E2E2E2E2E2E2E2E2E2E2E2E2E2E2E2E2E2E2E2E2E2E2E2E2E2E2E2E2E2E2E2E2E2E2E2E2E2E2E2E2E2E2E2E2E2E2E2E2
310
E2E2E2E2E2E2E2E2E2E2E2E2E2E2E2E2E2E2E2E2E2E2E2E2E2E2E2E2E2E2E2E2E2E2E2E2E2E2E2E2E2E2E2E2E2E2E2E2E2E2E2E2E2E2E2E2E2E2E2E2E2E2E2E2E2F5E2E2E2E2E2E2E2E2E2E2E2E2E2E2E2E2E2E2E2E2E2E2E2E2E2E2E2F5F5E2E2E2E2E2E2E2E2E2E2E2F5E2E2E2E2E2E2E2E2E2E2E2E2E2E2E2F5E2E2E2E2
310
E2E2E2E2E2E2E2E2E2E2E2E2E2E2E2E2E2E2E2E2E2E2E2E2E2E2E2E2E2E2E2E2E2E2E2E2E2E2E2E2E2E2E2E2E2E2E2E2E2E2E2E2E2E2E2E2E2E2E2E2E2E2E2E2E2E2E2E2E2E2E2E2E2E2E2E2E2E2E2E2E2E2E2E2E2E2E2E2E2E2E2E2E2E2E2E2E2E2E2E2E2E2E2E2E2E2E2E2E2E2E2E2E2E2E2E2E2E2F5E2E2E2E2E2E2E2E2
310
E2E2E2E2E2E2E2F5E2E2E2E2E2E2E2E2E2E2E2F5F5E2E2E2E2E2E2E2E2E2E2E2F5E2E2E2E2E2E2E2E2E2E2E2E2E2E2E2F5E2E2E2E2E2E2E2E2E2E2E2E2E2E2E2E2E2E2E2E2E2E2E2E2E2E2E2E2E2E2E2E2E2E2E2E2E2E2E2E2E2E2E2E2E2E2E2E2E2E2E2E2E2E2E2E2E2E2E2E2E2E2E2E2E2E2E2E2E2E2E2E2E2E2E2E2E2E2
310
E2E2E2E2E2E2E2E2E2E2E2E2E2E2E2E2E2E2E2E2E2E2E2E2E2E2E2E2E2E2E2E2E2E2E2E2E2E2E2E2E2E2E2E2F5E2E2E2E2E2E2E2E2E2E2E2E2E2E2E2F5E2E2E2E2E2E2E2E2E2E2E2F5F5E2E2E2E2E2E2E2E2E2E2E2F5E2E2E2E2E2E2E2E2E2E2E2E2E2E2E2F5E2E2E2E2E2E2E2E2E2E2E2E2E2E2E2E2E2E2E2E2E2E2E2E2E2
310
E2E2E2E2E2E2E2E2E2E2E2E2E2E2E2E2E2E2E2E2E2E2E2E2E2E2E2E2E2E2E2E2E2E2E2E2E2E2E2E2E2E2E2E2E2E2E2E2E2E2E2E2E2E2E2E2E2E2E2E2E2E2E2E2E2E2E2E2E2E2E2E2E2E2E2E2E2E2E2E2E2E2E2E2E2E2E2E2E2E2E2E2E2E2E2E2E2F5E2E2E2E2E2E2E2E2E2E2E2E2E2E2E2F5E2E2E2E2E2E2E2E2E2E2E2F5F5
310
E2E2E2E2E2E2E2E2E2E2E2F5E2E2E2E2E2E2E2E2E2E2E2E2E2E2E2F5E2E2E2E2E2E2E2E2E2E2E2E2E2E2E2E2E2E2E2E2E2E2E2E2E2E2E2E2E2E2E2E2E2E2E2E2E2E2E2E2E2E2E2E2E2E2E2E2E2E2E2E2E2E2E2E2E2E2E2E2E2E2E2E2E2E2E2E2E2E2E2E2E2E2E2E2E2E2E2E2E2E2E2E2E2E2E2E2E2E2E2E2E2E2E2E2E2E2E2
310
E2E2E2E2E2E2E2E2E2E2E2E2E2E2E2E2E2E2E2E2E2E2E2F5E2E2E2E2E2E2E2E2E2E2E2E2E2E2E2F5E2E2E2E2E2E2E2E2E2E2E2F5F5E2E2E2E2E2E2E2E2E2E2E2F5E2E2E2E2E2E2E2E2E2E2E2E2E2E2E2F5E2E2E2E2E2E2E2E2E2E2E2E2E2E2E2E2E2E2E2E2E2E2E2E2E2E2E2E2E2E2E2E2E2E2E2E2E2E2E2E2E2E2E2E2E2E2
310
E2E2E2E2E2E2E2E2E2E2E2E2E2E2E2E2E2E2E2E2E2E2E2E2E2E2E2E2E2E2E2E2E2E2E2E2E2E2E2E2E2E2E2E2E2E2E2E2E2E2E2E2E2E2E2E2E2E2E2E2E2E2E2E2E2E2E2E2E2E2E2E2E2E2E2E2F5E2E2E2E2E2E2E2E2E2E2E2E2E2E2E2F5E2E2E2E2E2E2E2E2E2E2E2F5F5E2E2E2E2E2E2E2E2E2E2E2F5E2E2E2E2E2E2E2E2E2
310
E2E2E2E2E2E2F5E2E2E2E2E2E2E2E2E2E2E2E2E2E2E2E2E2E2E2E2E2E2E2E2E2E2E2E2E2E2E2E2E2E2E2E2E2E2E2E2E2E2E2E2E2E2E2E2E2E2E2E2E2E2E2E2E2E2E2E2E2E2E2E2E2E2E2E2E2E2E2E2E2E2E2E2E2E2E2E2E2E2E2E2E2E2E2E2E2E2E2E2E2E2E2E2E2E2E2E2E2E2E2E2E2E2E2E2E2E2E2E2E2E2E2E2E2E2E2E2
310
E2E2F5E2E2E2E2E2E2E2E2E2E2E2E2E2E2E2F5E2E2E2E2E2E2E2E2E2E2E2F5F5E2E2E2E2E2E2E2E2E2E2E2F5E2E2E2E2E2E2E2E2E2E2E2E2E2E2E2F5E2E2E2E2E2E2E2E2E2E2E2E2E2E2E2E2E2E2E2E2E2E2E2E2E2E2E2E2E2E2E2E2E2E2E2E2E2E2E2E2E2E2E2E2E2E2E2E2E2E2E2E2E2E2E2E2E2E2E2E2E2E2E2E2E2E2E2
310
E2E2E2E2E2E2E2E2E2E2E2E2E2E2E2E2E2E2E2E2E2E2E2E2E2E2E2E2E2E2E2E2E2E2E2E2E2E2E2E2E2E2E2E2E2E2E2E2E2E2E2E2E2E2E2F5E2E2E2E2E2E2E2E2E2E2E2E2E2E2E2F5E2E2E2E2E2E2E2E2E2E2E2F5F5E2E2E2E2E2E2E2E2E2E2E2F5E2E2E2E2E2E2E2E2E2E2E2E2E2E2E2F5E2E2E2E2E2E2E2E2E2E2E2E2E2E2
310
E2E2E2E2E2E2E2E2E2E2E2E2E2E2E2E2E2E2E2E2E2E2E2E2E2E2E2E2E2E2E2E2E2E2E2E2E2E2E2E2E2E2E2E2E2E2E2E2E2E2E2E2E2E2E2E2E2E2E2E2E2E2E2E2E2E2E2E2E2E2E2E2E2E2E2E2E2E2E2E2E2E2E2E2E2E2E2E2E2E2E2E2E2E2E2E2E2E2E2E2E2E2E2E2E2E2E2E2F5E2E2E2E2E2E2E2E2E2E2E2E2E2E2E2F5E2E2
310
E2E2E2E2E2E2E2E2E2F5F5E2E2E2E2E2E2E2E2E2E2E2F5E2E2E2E2E2E2E2E2E2E2E2E2E2E2E2F5E2E2E2E2E2E2E2E2E2E2E2E2E2E2E2E2E2E2E2E2E2E2E2E2E2E2E2E2E2E2E2E2E2E2E2E2E2E2E2E2E2E2E2E2E2E2E2E2E2E2E2E2E2E2E2E2E2E2E2E2E2E2E2E2E2E2E2E2E2E2E2E2E2E2E2E2E2E2E2E2E2E2E2E2E2E2E2E2
310
E2E2E2E2E2E2E2E2E2E2E2E2E2E2E2E2E2E2E2E2E2E2E2E2E2E2E2E2E2E2E2E2E2E2F5E2E2E2E2E2E2E2E2E2E2E2E2E2E2E2F5E2E2E2E2E2E2E2E2E2E2E2F5F5E2E2E2E2E2E2E2E2E2E2E2F5E2E2E2E2E2E2E2E2E2E2E2E2E2E2E2F5E2E2E2E2E2E2E2E2E2E2E2E2E2E2E2E2E2E2E2E2E2E2E2E2E2E2E2E2E2E2E2E2E2E2E2
310
E2E2E2E2E2E2E2E2E2E2E2E2E2E2E2E2E2E2E2E2E2E2E2E2E2E2E2E2E2E2E2E2E2E2E2E2E2E2E2E2E2E2E2E2E2E2E2E2E2E2E2E2E2E2E2E2E2E2E2E2E2E2E2E2E2E2E2E2E2E2E2E2E2E2E2E2E2E2E2E2E2E2E2E2E2E2E2F5E2E2E2E2E2E2E2E2E2E2E2E2E2E2E2F5E2E2E2E2E2E2E2E2E2E2E2F5F5E2E2E2E2E2E2E2E2E2E2
310
E2F5E2E2E2E2E2E2E2E2E2E2E2E2E2E2E2F5E2E2E2E2E2E2E2E2E2E2E2E2E2E2E2E2E2E2E2E2E2E2E2E2E2E2E2E2E2E2E2E2E2E2E2E2E2E2E2E2E2E2E2E2E2E2E2E2E2E2E2E2E2E2E2E2E2E2E2E2E2E2E2E2E2E2E2E2E2E2E2E2E2E2E2E2E2E2E2E2E2E2E2E2E2E2E2E2E2E2E2E2E2E2E2E2E2E2E2E2E2E2E2E2E2E2E2E2E2
310
E2E2E2E2E2E2E2E2E2E2E2E2E2F5E2E2E2E2E2E2E2E2E2E2E2E2E2E2E2F5E2E2E2E2E2E2E2E2E2E2E2F5F5E2E2E2E2E2E2E2E2E2E2E2F5E2E2E2E2E2E2E2E2E2E2E2E2E2E2E2F5E2E2E2E2E2E2E2E2E2E2E2E2E2E2E2E2E2E2E2E2E2E2E2E2E2E2E2E2E2E2E2E2E2E2E2E2E2E2E2E2E2E2E2E2E2E2E2E2E2E2E2E2E2E2E2E2
310
E2E2E2E2E2E2E2E2E2E2E2E2E2E2E2E2E2E2E2E2E2E2E2E2E2E2E2E2E2E2E2E2E2E2E2E2E2E2E2E2E2E2E2E2E2E2E2E2E2E2E2E2E2E2E2E2E2E2E2E2E2E2E2E2E2E2F5E2E2E2E2E2E2E2E2E2E2E2E2E2E2E2F5E2E2E2E2E2E2E2E2E2E2E2F5F5E2E2E2E2E2E2E2E2E2E2E2F5E2E2E2E2E2E2E2E2E2E2E2E2E2E2E2F5E2E2E2
310
E2E2E2E2E2E2E2E2E2E2E2E2E2E2E2E2E2E2E2E2E2E2E2E2E2E2E2E2E2E2E2E2E2E2E2E2E2E2E2E2E2E2E2E2E2E2E2E2E2E2E2E2E2E2E2E2E2E2E2E2E2E2E2E2E2E2E2E2E2E2E2E2E2E2E2E2E2E2E2E2E2E2E2E2E2E2E2E2E2E2E2E2E2E2E2E2E2E2E2E2E2E2E2E2E2E2E2E2E2E2E2E2E2E2E2E2E2E2E2F5E2E2E2E2E2E2E2
310
E2E2E2E2E2E2E2E2F5E2E2E2E2E2E2E2E2E2E2E2F5F5E2E2E2E2E2E2E2E2E2E2E2F5E2E2E2E2E2E2E2E2E2E2E2E2E2E2E2F5E2E2E2E2E2E2E2E2E2E2E2E2E2E2E2E2E2E2E2E2E2E2E2E2E2E2E2E2E2E2E2E2E2E2E2E2E2E2E2E2E2E2E2E2E2E2E2E2E2E2E2E2E2E2E2E2E2E2E2E2E2E2E2E2E2E2E2E2E2E2E2E2E2E2E2E2E2
310
E2E2E2E2E2E2E2E2E2E2E2E2E2E2E2E2E2E2E2E2E2E2E2E2E2E2E2E2E2E2E2E2E2E2E2E2E2E2E2E2E2E2E2E2E2F5E2E2E2E2E2E2E2E2E2E2E2E2E2E2E2F5E2E2E2E2E2E2E2E2E2E2E2F5F5E2E2E2E2E2E2E2E2E2E2E2F5E2E2E2E2E2E2E2E2E2E2E2E2E2E2E2F5E2E2E2E2E2E2E2E2E2E2E2E2E2E2E2E2E2E2E2E2E2E2E2E2
310
E2E2E2E2E2E2E2E2E2E2E2E2E2E2E2E2E2E2E2E2E2E2E2E2E2E2E2E2E2E2E2E2E2E2E2E2E2E2E2E2E2E2E2E2E2E2E2E2E2E2E2E2E2E2E2E2E2E2E2E2E2E2E2E2E2E2E2E2E2E2E2E2E2E2E2E2E2E2E2E2E2E2E2E2E2E2E2E2E2E2E2E2E2E2E2E2E2E2F5E2E2E2E2E2E2E2E2E2E2E2E2E2E2E2F5E2E2E2E2E2E2E2E2E2E2E2F5
310
F5E2E2E2E2E2E2E2E2E2E2E2E2E2E2E2E2E2E2E2E2E2E2E2E2E2E2E2F5E2E2E2E2E2E2E2E2E2E2E2E2E2E2E2E2E2E2E2E2E2E2E2E2E2E2E2E2E2E2E2E2E2E2E2E2E2E2E2E2E2E2E2E2E2E2E2E2E2E2E2E2E2E2E2E2E2E2E2E2E2E2E2E2E2E2E2E2E2E2E2E2E2E2E2E2E2E2E2E2E2E2E2E2E2E2E2E2E2E2E2E2E2E2E2E2E2E2
310
E2E2E2E2E2E2E2E2E2E2E2E2E2E2E2E2E2E2E2E2E2E2E2E2F5E2E2E2E2E2E2E2E2E2E2E2E2E2E2E2E2E2E2E2E2E2E2E2E2E2E2E2F5F5E2E2E2E2E2E2E2E2E2E2E2E2E2E2E2E2E2E2E2E2E2E2E2E2E2E2E2F5E2E2E2E2E2E2E2E2E2E2E2E2E2E2E2E2E2E2E2E2E2E2E2E2E2E2E2E2E2E2E2E2E2E2E2E2E2E2E2E2E2E2E2E2E2
310
E2E2E2E2E2E2E2E2E2E2E2E2E2E2E2E2E2E2E2E2E2E2E2E2E2E2E2E2E2E2E2E2E2E2E2E2E2E2E2E2E2E2E2E2E2E2E2E2E2E2E2E2E2E2E2E2E2E2E2E2E2E2E2E2E2E2E2E2E2E2E2E2E2E2E2E2E2F5E2E2E2E2E2E2E2E2E2E2E2E2E2E2E2E2E2E2E2E2E2E2E2E2E2E2E2F5F5E2E2E2E2E2E2E2E2E2E2E2E2E2E2E2E2E2E2E2E2
310
E2E2E2E2E2E2E2F5E2E2E2E2E2E2E2E2E2E2E2E2E2E2E2E2E2E2E2E2E2E2E2E2E2E2E2E2E2E2E2E2E2E2E2E2E2E2E2E2E2E2E2E2E2E2E2E2E2E2E2E2E2E2E2E2E2E2E2E2E2E2E2E2E2E2E2E2E2E2E2E2E2E2E2E2E2E2E2E2E2E2E2E2E2E2E2E2E2E2E2E2E2E2E2E2E2E2E2E2E2E2E2E2E2E2E2E2E2E2E2E2E2E2E2E2E2E2E2
310
E2E2E2F5E2E2E2E2E2E2E2E2E2E2E2E2E2E2E2E2E2E2E2E2E2E2E2E2E2E2E2F5F5E2E2E2E2E2E2E2E2E2E2E2E2E2E2E2E2E2E2E2E2E2E2E2E2E2E2E2F5E2E2E2E2E2E2E2E2E2E2E2E2E2E2E2E2E2E2E2E2E2E2E2E2E2E2E2E2E2E2E2E2E2E2E2E2E2E2E2E2E2E2E2E2E2E2E2E2E2E2E2E2E2E2E2E2E2E2E2E2E2E2E2E2E2E2
310
E2E2E2E2E2E2E2E2E2E2E2E2E2E2E2E2E2E2E2E2E2E2E2E2E2E2E2E2E2E2E2E2E2E2E2E2E2E2E2E2E2E2E2E2E2E2E2E2E2E2E2E2E2E2E2E2F5E2E2E2E2E2E2E2E2E2E2E2E2E2E2E2E2E2E2E2E2E2E2E2E2E2E2E2F5F5E2E2E2E2E2E2E2E2E2E2E2E2E2E2E2E2E2E2E2E2E2E2E2E2E2E2E2F5E2E2E2E2E2E2E2E2E2E2E2E2E2
310
E2E2E2E2E2E2E2E2E2E2E2E2E2E2E2E2E2E2E2E2E2E2E2E2E2E2E2E2E2E2E2E2E2E2E2E2E2E2E2E2E2E2E2E2E2E2E2E2E2E2E2E2E2E2E2E2E2E2E2E2E2E2E2E2E2E2E2E2E2E2E2E2E2E2E2E2E2E2E2E2E2E2E2E2E2E2E2E2E2E2E2E2E2E2E2E2E2E2E2E2E2E2E2E2E2E2E2E2E2F5E2E2E2E2E2E2E2E2E2E2E2E2E2E2E2E2E2
310
E2E2E2E2E2E2E2E2E2E2F5F5E2E2E2E2E2E2E2E2E2E2E2E2E2E2E2E2E2E2E2E2E2E2E2E2E2E2E2F5E2E2E2E2E2E2E2E2E2E2E2E2E2E2E2E2E2E2E2E2E2E2E2E2E2E2E2E2E2E2E2E2E2E2E2E2E2E2E2E2E2E2E2E2E2E2E2E2E2E2E2E2E2E2E2E2E2E2E2E2E2E2E2E2E2E2E2E2E2E2E2E2E2E2E2E2E2E2E2E2E2E2E2E2E2E2E2
310
E2E2E2E2E2E2E2E2E2E2E2E2E2E2E2E2E2E2E2E2E2E2E2E2E2E2E2E2E2E2E2E2E2E2E2F5E2E2E2E2E2E2E2E2E2E2E2E2E2E2E2E2E2E2E2E2E2E2E2E2E2E2E2F5F5E2E2E2E2E2E2E2E2E2E2E2E2E2E2E2E2E2E2E2E2E2E2E2E2E2E2E2F5E2E2E2E2E2E2E2E2E2E2E2E2E2E2E2E2E2E2E2E2E2E2E2E2E2E2E2E2E2E2E2E2E2E2
310
E2E2E2E2E2E2E2E2E2E2E2E2E2E2E2E2E2E2E2E2E2E2E2E2E2E2E2E2E2E2E2E2E2E2E2E2E2E2E2E2E2E2E2E2E2E2E2E2E2E2E2E2E2E2E2E2E2E2E2E2E2E2E2E2E2E2E2E2E2E2E2E2E2E2E2E2E2E2E2E2E2E2E2E2E2E2E2E2F5E2E2E2E2E2E2E2E2E2E2E2E2E2E2E2E2E2E2E2E2E2E2E2E2E2E2E2F5F5E2E2E2E2E2E2E2E2E2
310
E2E2E2E2E2E2E2E2E2E2E2E2E2E2E2E2E2E2F5E2E2E2E2E2E2E2E2E2E2E2E2E2E2E2E2E2E2E2E2E2E2E2E2E2E2E2E2E2E2E2E2E2E2E2E2E2E2E2E2E2E2E2E2E2E2E2E2E2E2E2E2E2E2E2E2E2E2E2E2E2E2E2E2E2E2E2E2E2E2E2E2E2E2E2E2E2E2E2E2E2E2E2E2E2E2E2E2E2E2E2E2E2E2E2E2E2E2E2E2E2E2E2E2E2E2E2E2
310
E2E2E2E2E2E2E2E2E2E2E2E2E2E2F5E2E2E2E2E2E2E2E2E2E2E2E2E2E2E2E2E2E2E2E2E2E2E2E2E2E2E2F5F5E2E2E2E2E2E2E2E2E2E2E2F5E2E2E2E2E2E2E2E2E2E2E2E2E2E2E2F5E2E2E2E2E2E2E2E2E2E2E2E2E2E2E2E2E2E2E2E2E2E2E2E2E2E2E2E2E2E2E2E2E2E2E2E2E2E2E2E2E2E2E2E2E2E2E2E2E2E2E2E2E2E2E2
310
E2E2E2E2E2E2E2E2E2E2E2E2E2E2E2E2E2E2E2E2E2E2E2E2E2E2E2E2E2E2E2E2E2E2E2E2E2E2E2E2E2E2E2E2E2E2E2E2E2E2E2E2E2E2E2E2E2E2E2E2E2E2E2E2E2E2E2F5E2E2E2E2E2E2E2E2E2E2E2E2E2E2E2F5E2E2E2E2E2E2E2E2E2E2E2F5F5E2E2E2E2E2E2E2E2E2E2E2F5E2E2E2E2E2E2E2E2E2E2E2E2E2E2E2F5E2E2
310
E2E2E2E2E2E2E2E2E2E2E2E2E2E2E2E2E2E2E2E2E2E2E2E2E2E2E2E2E2E2E2E2E2E2E2E2E2E2E2E2E2E2E2E2E2E2E2E2E2E2E2E2E2E2E2E2E2E2E2E2E2E2E2E2E2E2E2E2E2E2E2E2E2E2E2E2E2E2E2E2E2E2E2E2E2E2E2E2E2E2E2E2E2E2E2E2E2E2E2E2E2E2E2E2E2E2E2E2E2E2E2E2E2E2E2E2E2E2E2E2F5E2E2E2E2E2E2
310
E2E2E2E2E2E2E2E2E2F5E2E2E2E2E2E2E2E2E2E2E2F5F5E2E2E2E2E2E2E2E2E2E2E2F5E2E2E2E2E2E2E2E2E2E2E2E2E2E2E2F5E2E2E2E2E2E2E2E2E2E2E2E2E2E2E2E2E2E2E2E2E2E2E2E2E2E2E2E2E2E2E2E2E2E2E2E2E2E2E2E2E2E2E2E2E2E2E2E2E2E2E2E2E2E2E2E2E2E2E2E2E2E2E2E2E2E2E2E2E2E2E2E2E2E2E2E2
310
E2E2E2E2E2E2E2E2E2E2E2E2E2E2E2E2E2E2E2E2E2E2E2E2E2E2E2E2E2E2E2E2E2E2E2E2E2E2E2E2E2E2E2E2E2E2F5E2E2E2E2E2E2E2E2E2E2E2E2E2E2E2F5E2E2E2E2E2E2E2E2E2E2E2F5F5E2E2E2E2E2E2E2E2E2E2E2F5E2E2E2E2E2E2E2E2E2E2E2E2E2E2E2F5E2E2E2E2E2E2E2E2E2E2E2E2E2E2E2E2E2E2E2E2E2E2E2
310
E2E2E2E2E2E2E2E2E2E2E2E2E2E2E2E2E2E2E2E2E2E2E2E2E2E2E2E2E2E2E2E2E2E2E2E2E2E2E2E2E2E2E2E2E2E2E2E2E2E2E2E2E2E2E2E2E2E2E2E2E2E2E2E2E2E2E2E2E2E2E2E2E2E2E2E2E2E2E2E2E2E2E2E2E2E2E2E2E2E2E2E2E2E2E2E2E2E2E2F5E2E2E2E2E2E2E2E2E2E2E2E2E2E2E2F5E2E2E2E2E2E2E2E2E2E2E2
310
F5F5E2E2E2E2E2E2E2E2E2E2E2F5E2E2E2E2E2E2E2E2E2E2E2E2E2E2E2F5E2E2E2E2E2E2E2E2E2E2E2E2E2E2E2E2E2E2E2E2E2E2E2E2E2E2E2E2E2E2E2E2E2E2E2E2E2E2E2E2E2E2E2E2E2E2E2E2E2E2E2E2E2E2E2E2E2E2E2E2E2E2E2E2E2E2E2E2E2E2E2E2E2E2E2E2E2E2E2E2E2E2E2E2E2E2E2E2E2E2E2E2E2E2E2E2E2
310
E2E2E2E2E2E2E2E2E2E2E2E2E2E2E2E2E2E2E2E2E2E2E2E2E2F5E2E2E2E2E2E2E2E2E2E2E2E2E2E2E2F5E2E2E2E2E2E2E2E2E2E2E2F5F5E2E2E2E2E2E2E2E2E2E2E2F5E2E2E2E2E2E2E2E2E2E2E2E2E2E2E2F5E2E2E2E2E2E2E2E2E2E2E2E2E2E2E2E2E2E2E2E2E2E2E2E2E2E2E2E2E2E2E2E2E2E2E2E2E2E2E2E2E2E2E2E2
310
E2E2E2E2E2E2E2E2E2E2E2E2E2E2E2E2E2E2E2E2E2E2E2E2E2E2E2E2E2E2E2E2E2E2E2E2E2E2E2E2E2E2E2E2E2E2E2E2E2E2E2E2E2E2E2E2E2E2E2E2E2E2E2E2E2E2E2E2E2E2E2E2E2E2E2E2E2E2F5E2E2E2E2E2E2E2E2E2E2E2E2E2E2E2F5E2E2E2E2E2E2E2E2E2E2E2F5F5E2E2E2E2E2E2E2E2E2E2E2F5E2E2E2E2E2E2E2
310
E2E2E2E2E2E2E2E2F5E2E2E2E2E2E2E2E2E2E2E2E2E2E2E2E2E2E2E2E2E2E2E2E2E2E2E2E2E2E2E2E2E2E2E2E2E2E2E2E2E2E2E2E2E2E2E2E2E2E2E2E2E2E2E2E2E2E2E2E2E2E2E2E2E2E2E2E2E2E2E2E2E2E2E2E2E2E2E2E2E2E2E2E2E2E2E2E2E2E2E2E2E2E2E2E2E2E2E2E2E2E2E2E2E2E2E2E2E2E2E2E2E2E2E2E2E2E2
310
E2E2E2E2F5E2E2E2E2E2E2E2E2E2E2E2E2E2E2E2F5E2E2E2E2E2E2E2E2E2E2E2F5F5E2E2E2E2E2E2E2E2E2E2E2F5E2E2E2E2E2E2E2E2E2E2E2E2E2E2E2F5E2E2E2E2E2E2E2E2E2E2E2E2E2E2E2E2E2E2E2E2E2E2E2E2E2E2E2E2E2E2E2E2E2E2E2E2E2E2E2E2E2E2E2E2E2E2E2E2E2E2E2E2E2E2E2E2E2E2E2E2E2E2E2E2E2
310
E2E2E2E2E2E2E2E2E2E2E2E2E2E2E2E2E2E2E2E2E2E2E2E2E2E2E2E2E2E2E2E2E2E2E2E2E2E2E2E2E2E2E2E2E2E2E2E2E2E2E2E2E2E2E2E2E2F5E2E2E2E2E2E2E2E2E2E2E2E2E2E2E2F5E2E2E2E2E2E2E2E2E2E2E2F5F5E2E2E2E2E2E2E2E2E2E2E2F5E2E2E2E2E2E2E2E2E2E2E2E2E2E2E2F5E2E2E2E2E2E2E2E2E2E2E2E2
310
E2E2E2E2E2E2E2E2E2E2E2E2E2E2E2E2E2E2E2E2E2E2E2E2E2E2E2E2E2E2E2E2E2E2E2E2E2E2E2E2E2E2E2E2E2E2E2E2E2E2E2E2E2E2E2E2E2E2E2E2E2E2E2E2E2E2E2E2E2E2E2E2E2E2E2E2E2E2E2E2E2E2E2E2E2E2E2E2E2E2E2E2E2E2E2E2E2E2E2E2E2E2E2E2E2E2E2E2E2E2F5E2E2E2E2E2E2E2E2E2E2E2E2E2E2E2F5
310
E2E2E2E2E2E2E2E2E2E2E2F5F5E2E2E2E2E2E2E2E2E2E2E2F5E2E2E2E2E2E2E2E2E2E2E2E2E2E2E2F5E2E2E2E2E2E2E2E2E2E2E2E2E2E2E2E2E2E2E2E2E2E2E2E2E2E2E2E2E2E2E2E2E2E2E2E2E2E2E2E2E2E2E2E2E2E2E2E2E2E2E2E2E2E2E2E2E2E2E2E2E2E2E2E2E2E2E2E2E2E2E2E2E2E2E2E2E2E2E2E2E2E2E2E2E2E2
310
E2E2E2E2E2E2E2E2E2E2E2E2E2E2E2E2E2E2E2E2E2E2E2E2E2E2E2E2E2E2E2E2E2E2E2E2F5E2E2E2E2E2E2E2E2E2E2E2E2E2E2E2F5E2E2E2E2E2E2E2E2E2E2E2F5F5E2E2E2E2E2E2E2E2E2E2E2F5E2E2E2E2E2E2E2E2E2E2E2E2E2E2E2F5E2E2E2E2E2E2E2E2E2E2E2E2E2E2E2E2E2E2E2E2E2E2E2E2E2E2E2E2E2E2E2E2E2
310
E2E2E2E2E2E2E2E2E2E2E2E2E2E2E2E2E2E2E2E2E2E2E2E2E2E2E2E2E2E2E2E2E2E2E2E2E2E2E2E2E2E2E2E2E2E2E2E2E2E2E2E2E2E2E2E2E2E2E2E2E2E2E2E2E2E2E2E2E2E2E2E2E2E2E2E2E2E2E2E2E2E2E2E2E2E2E2E2E2F5E2E2E2E2E2E2E2E2E2E2E2E2E2E2E2F5E2E2E2E2E2E2E2E2E2E2E2F5F5E2E2E2E2E2E2E2E2
310
E2E2E2F5E2E2E2E2E2E2E2E2E2E2E2E2E2E2E2F5E2E2E2E2E2E2E2E2E2E2E2E2E2E2E2E2E2E2E2E2E2E2E2E2E2E2E2E2E2E2E2E2E2E2E2E2E2E2E2E2E2E2E2E2E2E2E2E2E2E2E2E2E2E2E2E2E2E2E2E2E2E2E2E2E2E2E2E2E2E2E2E2E2E2E2E2E2E2E2E2E2E2E2E2E2E2E2E2E2E2E2E2E2E2E2E2E2E2E2E2E2E2E2E2E2E2E2
310
E2E2E2E2E2E2E2E2E2E2E2E2E2E2E2F5E2E2E2E2E2E2E2E2E2E2E2E2E2E2E2F5E2E2E2E2E2E2E2E2E2E2E2F5F5E2E2E2E2E2E2E2E2E2E2E2F5E2E2E2E2E2E2E2E2E2E2E2E2E2E2E2F5E2E2E2E2E2E2E2E2E2E2E2E2E2E2E2E2E2E2E2E2E2E2E2E2E2E2E2E2E2E2E2E2E2E2E2E2E2E2E2E2E2E2E2E2E2E2E2E2E2E2E2E2E2E2
310
E2E2E2E2E2E2E2E2E2E2E2E2E2E2E2E2E2E2E2E2E2E2E2E2E2E2E2E2E2E2E2E2E2E2E2E2E2E2E2E2E2E2E2E2E2E2E2E2E2E2E2E2E2E2E2E2E2E2E2E2E2E2E2E2E2E2E2E2F5E2E2E2E2E2E2E2E2E2E2E2E2E2E2E2F5E2E2E2E2E2E2E2E2E2E2E2F5F5E2E2E2E2E2E2E2E2E2E2E2F5E2E2E2E2E2E2E2E2E2E2E2E2E2E2E2F5E2
310
E2E2E2E2E2E2E2E2E2E2E2E2E2E2E2E2E2E2E2E2E2E2E2E2E2E2E2E2E2E2E2E2E2E2E2E2E2E2E2E2E2E2E2E2E2E2E2E2E2E2E2E2E2E2E2E2E2E2E2E2E2E2E2E2E2E2E2E2E2E2E2E2E2E2E2E2E2E2E2E2E2E2E2E2E2E2E2E2E2E2E2E2E2E2E2E2E2E2E2E2E2E2E2E2E2E2E2E2E2E2E2E2E2E2E2E2E2E2E2E2E2F5E2E2E2E2E2
310
E2E2E2E2E2E2E2E2E2E2F5E2E2E2E2E2E2E2E2E2E2E2F5F5E2E2E2E2E2E2E2E2E2E2E2F5E2E2E2E2E2E2E2E2E2E2E2E2E2E2E2F5E2E2E2E2E2E2E2E2E2E2E2E2E2E2E2E2E2E2E2E2E2E2E2E2E2E2E2E2E2E2E2E2E2E2E2E2E2E2E2E2E2E2E2E2E2E2E2E2E2E2E2E2E2E2E2E2E2E2E2E2E2E2E2E2E2E2E2E2E2E2E2E2E2E2E2
310
E2E2E2E2E2E2E2E2E2E2E2E2E2E2E2E2E2E2E2E2E2E2E2E2E2E2E2E2E2E2E2E2E2E2E2E2E2E2E2E2E2E2E2E2E2E2E2F5E2E2E2E2E2E2E2E2E2E2E2E2E2E2E2F5E2E2E2E2E2E2E2E2E2E2E2F5F5E2E2E2E2E2E2E2E2E2E2E2E2E2E2E2E2E2E2E2E2E2E2E2E2E2E2E2F5E2E2E2E2E2E2E2E2E2E2E2E2E2E2E2E2E2E2E2E2E2E2
310
E2E2E2E2E2E2E2E2E2E2E2E2E2E2E2E2E2E2E2E2E2E2E2E2E2E2E2E2E2E2E2E2E2E2E2E2E2E2E2E2E2E2E2E2E2E2E2E2E2E2E2E2E2E2E2E2E2E2E2E2E2E2E2E2E2E2E2E2E2E2E2E2E2E2E2E2E2E2E2E2E2E2E2E2E2E2E2E2E2E2E2E2E2E2E2E2E2E2E2E2F5E2E2E2E2E2E2E2E2E2E2E2E2E2E2E2E2E2E2E2E2E2E2E2E2E2E2
310
E2F5F5E2E2E2E2E2E2E2E2E2E2E2E2E2E2E2E2E2E2E2E2E2E2E2E2E2E2E2F5E2E2E2E2E2E2E2E2E2E2E2E2E2E2E2E2E2E2E2E2E2E2E2E2E2E2E2E2E2E2E2E2E2E2E2E2E2E2E2E2E2E2E2E2E2E2E2E2E2E2E2E2E2E2E2E2E2E2E2E2E2E2E2E2E2E2E2E2E2E2E2E2E2E2E2E2E2E2E2E2E2E2E2E2E2E2E2E2E2E2E2E2E2E2E2E2
310
E2E2E2E2E2E2E2E2E2E2E2E2E2E2E2E2E2E2E2E2E2E2E2E2E2E2F5E2E2E2E2E2E2E2E2E2E2E2E2E2E2E2E2E2E2E2E2E2E2E2E2E2E2E2F5F5E2E2E2E2E2E2E2E2E2E2E2E2E2E2E2E2E2E2E2E2E2E2E2E2E2E2E2F5E2E2E2E2E2E2E2E2E2E2E2E2E2E2E2E2E2E2E2E2E2E2E2E2E2E2E2E2E2E2E2E2E2E2E2E2E2E2E2E2E2E2E2
310
E2E2E2E2E2E2E2E2E2E2E2E2E2E2E2E2E2E2E2E2E2E2E2E2E2E2E2E2E2E2E2E2E2E2E2E2E2E2E2E2E2E2E2E2E2E2E2E2E2E2E2E2E2E2E2E2E2E2E2E2E2E2E2E2E2E2E2E2E2E2E2E2E2E2E2E2E2E2E2F5E2E2E2E2E2E2E2E2E2E2E2E2E2E2E2E2E2E2E2E2E2E2E2E2E2E2E2F5F5E2E2E2E2E2E2E2E2E2E2E2E2E2E2E2E2E2E2
310
E2E2E2E2E2E2E2E2E2F5E2E2E2E2E2E2E2E2E2E2E2E2E2E2E2E2E2E2E2E2E2E2E2E2E2E2E2E2E2E2E2E2E2E2E2E2E2E2E2E2E2E2E2E2E2E2E2E2E2E2E2E2E2E2E2E2E2E2E2E2E2E2E2E2E2E2E2E2E2E2E2E2E2E2E2E2E2E2E2E2E2E2E2E2E2E2E2E2E2E2E2E2E2E2E2E2E2E2E2E2E2E2E2E2E2E2E2E2E2E2E2E2E2E2E2E2E2
310
E2E2E2E2E2F5E2E2E2E2E2E2E2E2E2E2E2E2E2E2E2E2E2E2E2E2E2E2E2E2E2E2E2F5F5E2E2E2E2E2E2E2E2E2E2E2E2E2E2E2E2E2E2E2E2E2E2E2E2E2E2E2F5E2E2E2E2E2E2E2E2E2E2E2E2E2E2E2E2E2E2E2E2E2E2E2E2E2E2E2E2E2E2E2E2E2E2E2E2E2E2E2E2E2E2E2E2E2E2E2E2E2E2E2E2E2E2E2E2E2E2E2E2E2E2E2E2
310
E2E2E2E2E2E2E2E2E2E2E2E2E2E2E2E2E2E2E2E2E2E2E2E2E2E2E2E2E2E2E2E2E2E2E2E2E2E2E2E2E2E2E2E2E2E2E2E2E2E2E2E2E2E2E2E2E2E2F5E2E2E2E2E2E2E2E2E2E2E2E2E2E2E2E2E2E2E2E2E2E2E2E2E2E2E2F5F5E2E2E2E2E2E2E2E2E2E2E2E2E2E2E2E2E2E2E2E2E2E2E2E2E2E2E2F5E2E2E2E2E2E2E2E2E2E2E2
310
E2E2E2E2E2E2E2E2E2E2E2E2E2E2E2E2E2E2E2E2E2E2E2E2E2E2E2E2E2E2E2E2E2E2E2E2E2E2E2E2E2E2E2E2E2E2E2E2E2E2E2E2E2E2E2E2E2E2E2E2E2E2E2E2E2E2E2E2E2E2E2E2E2E2E2E2E2E2E2E2E2E2E2E2E2E2E2E2E2E2E2E2E2E2E2E2E2E2E2E2E2E2E2E2E2E2E2E2E2E2E2F5E2E2E2E2E2E2E2E2E2E2E2E2E2E2E2
310
E2E2E2E2E2E2E2E2E2E2E2E2F5F5E2E2E2E2E2E2E2E2E2E2E2E2E2E2E2E2E2E2E2E2E2E2E2E2E2E2E2F5E2E2E2E2E2E2E2E2E2E2E2E2E2E2E2E2E2E2E2E2E2E2E2E2E2E2E2E2E2E2E2E2E2E2E2E2E2E2E2E2E2E2E2E2E2E2E2E2E2E2E2E2E2E2E2E2E2E2E2E2E2E2E2E2E2E2E2E2E2E2E2E2E2E2E2E2E2E2E2E2E2E2E2E2E2
310
E2E2E2E2E2E2E2E2E2E2E2E2E2E2E2E2E2E2E2E2E2E2E2E2E2E2E2E2E2E2E2E2E2E2E2E2E2F5E2E2E2E2E2E2E2E2E2E2E2E2E2E2E2E2E2E2E2E2E2E2E2E2E2E2E2F5F5E2E2E2E2E2E2E2E2E2E2E2E2E2E2E2E2E2E2E2E2E2E2E2E2E2E2E2F5E2E2E2E2E2E2E2E2E2E2E2E2E2E2E2E2E2E2E2E2E2E2E2E2E2E2E2E2E2E2E2E2
310
E2E2E2E2E2E2E2E2E2E2E2E2E2E2E2E2E2E2E2E2E2E2E2E2E2E2E2E2E2E2E2E2E2E2E2E2E2E2E2E2E2E2E2E2E2E2E2E2E2E2E2E2E2E2E2E2E2E2E2E2E2E2E2E2E2E2E2E2E2E2E2E2E2E2E2E2E2E2E2E2E2E2E2E2E2E2E2E2E2E2F5E2E2E2E2E2E2E2E2E2E2E2E2E2E2E2E2E2E2E2E2E2E2E2E2E2E2E2F5F5E2E2E2E2E2E2E2
310
E2E2E2E2E2E2E2E2E2E2E2E2E2E2E2E2E2E2E2E2F5E2E2E2E2E2E2E2E2E2E2E2E2E2E2E2E2E2E2E2E2E2E2E2E2E2E2E2E2E2E2E2E2E2E2E2E2E2E2E2E2E2E2E2E2E2E2E2E2E2E2E2E2E2E2E2E2E2E2E2E2E2E2E2E2E2E2E2E2E2E2E2E2E2E2E2E2E2E2E2E2E2E2E2E2E2E2E2E2E2E2E2E2E2E2E2E2E2E2E2E2E2E2E2E2E2E2
310
E2E2E2E2E2E2E2E2E2E2E2E2E2E2E2E2F5E2E2E2E2E2E2E2E2E2E2E2E2E2E2E2E2E2E2E2E2E2E2E2E2E2E2E2F5F5E2E2E2E2E2E2E2E2E2E2E2F5E2E2E2E2E2E2E2E2E2E2E2E2E2E2E2F5E2E2E2E2E2E2E2E2E2E2E2E2E2E2E2E2E2E2E2E2E2E2E2E2E2E2E2E2E2E2E2E2E2E2E2E2E2E2E2E2E2E2E2E2E2E2E2E2E2E2E2E2E2
310
E2E2E2E2E2E2E2E2E2E2E2E2E2E2E2E2E2E2E2E2E2E2E2E2E2E2E2E2E2E2E2E2E2E2E2E2E2E2E2E2E2E2E2E2E2E2E2E2E2E2E2E2E2E2E2E2E2E2E2E2E2E2E2E2E2E2E2E2E2F5E2E2E2E2E2E2E2E2E2E2E2E2E2E2E2F5E2E2E2E2E2E2E2E2E2E2E2F5F5E2E2E2E2E2E2E2E2E2E2E2F5E2E2E2E2E2E2E2E2E2E2E2E2E2E2E2F5
310
E2E2E2E2E2E2E2E2E2E2E2E2E2E2E2E2E2E2E2E2E2E2E2E2E2E2E2E2E2E2E2E2E2E2E2E2E2E2E2E2E2E2E2E2E2E2E2E2E2E2E2E2E2E2E2E2E2E2E2E2E2E2E2E2E2E2E2E2E2E2E2E2E2E2E2E2E2E2E2E2E2E2E2E2E2E2E2E2E2E2E2E2E2E2E2E2E2E2E2E2E2E2E2E2E2E2E2E2E2E2E2E2E2E2E2E2E2E2E2E2E2E2F5E2E2E2E2
310
E2E2E2E2E2E2E2E2E2E2E2F5E2E2E2E2E2E2E2E2E2E2E2F5F5E2E2E2E2E2E2E2E2E2E2E2F5E2E2E2E2E2E2E2E2E2E2E2E2E2E2E2F5E2E2E2E2E2E2E2E2E2E2E2E2E2E2E2E2E2E2E2E2E2E2E2E2E2E2E2E2E2E2E2E2E2E2E2E2E2E2E2E2E2E2E2E2E2E2E2E2E2E2E2E2E2E2E2E2E2E2E2E2E2E2E2E2E2E2E2E2E2E2E2E2E2E2
310
E2E2E2E2E2E2E2E2E2E2E2E2E2E2E2E2E2E2E2E2E2E2E2E2E2E2E2E2E2E2E2E2E2E2E2E2E2E2E2E2E2E2E2E2E2E2E2E2F5E2E2E2E2E2E2E2E2E2E2E2E2E2E2E2F5E2E2E2E2E2E2E2E2E2E2E2F5F5E2E2E2E2E2E2E2E2E2E2E2F5E2E2E2E2E2E2E2E2E2E2E2E2E2E2E2F5E2E2E2E2E2E2E2E2E2E2E2E2E2E2E2E2E2E2E2E2E2
310
E2E2E2E2E2E2E2E2E2E2E2E2E2E2E2E2E2E2E2E2E2E2E2E2E2E2E2E2E2E2E2E2E2E2E2E2E2E2E2E2E2E2E2E2E2E2E2E2E2E2E2E2E2E2E2E2E2E2E2E2E2E2E2E2E2E2E2E2E2E2E2E2E2E2E2E2E2E2E2E2E2E2E2E2E2E2E2E2E2E2E2E2E2E2E2E2E2E2E2E2E2F5E2E2E2E2E2E2E2E2E2E2E2E2E2E2E2F5E2E2E2E2E2E2E2E2E2
310
E2E2F5F5E2E2E2E2E2E2E2E2E2E2E2F5E2E2E2E2E2E2E2E2E2E2E2E2E2E2E2F5E2E2E2E2E2E2E2E2E2E2E2E2E2E2E2E2E2E2E2E2E2E2E2E2E2E2E2E2E2E2E2E2E2E2E2E2E2E2E2E2E2E2E2E2E2E2E2E2E2E2E2E2E2E2E2E2E2E2E2E2E2E2E2E2E2E2E2E2E2E2E2E2E2E2E2E2E2E2E2E2E2E2E2E2E2E2E2E2E2E2E2E2E2E2E2
310
E2E2E2E2E2E2E2E2E2E2E2E2E2E2E2E2E2E2E2E2E2E2E2E2E2E2E2F5E2E2E2E2E2E2E2E2E2E2E2E2E2E2E2F5E2E2E2E2E2E2E2E2E2E2E2F5F5E2E2E2E2E2E2E2E2E2E2E2F5E2E2E2E2E2E2E2E2E2E2E2E2E2E2E2F5E2E2E2E2E2E2E2E2E2E2E2E2E2E2E2E2E2E2E2E2E2E2E2E2E2E2E2E2E2E2E2E2E2E2E2E2E2E2E2E2E2E2
310
E2E2E2E2E2E2E2E2E2E2E2E2E2E2E2E2E2E2E2E2E2E2E2E2E2E2E2E2E2E2E2E2E2E2E2E2E2E2E2E2E2E2E2E2E2E2E2E2E2E2E2E2E2E2E2E2E2E2E2E2E2E2E2E2E2E2E2E2E2E2E2E2E2E2E2E2E2E2E2E2F5E2E2E2E2E2E2E2E2E2E2E2E2E2E2E2F5E2E2E2E2E2E2E2E2E2E2E2F5F5E2E2E2E2E2E2E2E2E2E2E2F5E2E2E2E2E2
310
E2E2E2E2E2E2E2E2E2E2F5E2E2E2E2E2E2E2E2E2E2E2E2E2E2E2E2E2E2E2E2E2E2E2E2E2E2E2E2E2E2E2E2E2E2E2E2E2E2E2E2E2E2E2E2E2E2E2E2E2E2E2E2E2E2E2E2E2E2E2E2E2E2E2E2E2E2E2E2E2E2E2E2E2E2E2E2E2E2E2E2E2E2E2E2E2E2E2E2E2E2E2E2E2E2E2E2E2E2E2E2E2E2E2E2E2E2E2E2E2E2E2E2E2E2E2E2
310
E2E2E2E2E2E2F5E2E2E2E2E2E2E2E2E2E2E2E2E2E2E2F5E2E2E2E2E2E2E2E2E2E2E2F5F5E2E2E2E2E2E2E2E2E2E2E2F5E2E2E2E2E2E2E2E2E2E2E2E2E2E2E2F5E2E2E2E2E2E2E2E2E2E2E2E2E2E2E2E2E2E2E2E2E2E2E2E2E2E2E2E2E2E2E2E2E2E2E2E2E2E2E2E2E2E2E2E2E2E2E2E2E2E2E2E2E2E2E2E2E2E2E2E2E2E2E2
310
E2E2E2E2E2E2E2E2E2E2E2E2E2E2E2E2E2E2E2E2E2E2E2E2E2E2E2E2E2E2E2E2E2E2E2E2E2E2E2E2E2E2E2E2E2E2E2E2E2E2E2E2E2E2E2E2E2E2E2F5E2E2E2E2E2E2E2E2E2E2E2E2E2E2E2F5E2E2E2E2E2E2E2E2E2E2E2F5F5E2E2E2E2E2E2E2E2E2E2E2F5E2E2E2E2E2E2E2E2E2E2E2E2E2E2E2F5E2E2E2E2E2E2E2E2E2E2
310
E2E2E2E2E2E2E2E2E2E2E2E2E2E2E2E2E2E2E2E2E2E2E2E2E2E2E2E2E2E2E2E2E2E2E2E2E2E2E2E2E2E2E2E2E2E2E2E2E2E2E2E2E2E2E2E2E2E2E2E2E2E2E2E2E2E2E2E2E2E2E2E2E2E2E2E2E2E2E2E2E2E2E2E2E2E2E2E2E2E2E2E2E2E2E2E2E2E2E2E2E2E2E2E2E2E2E2E2E2E2E2E2F5E2E2E2E2E2E2E2E2E2E2E2E2E2E2
310
E2F5E2E2E2E2E2E2E2E2E2E2E2F5F5E2E2E2E2E2E2E2E2E2E2E2F5E2E2E2E2E2E2E2E2E2E2E2E2E2E2E2F5E2E2E2E2E2E2E2E2E2E2E2E2E2E2E2E2E2E2E2E2E2E2E2E2E2E2E2E2E2E2E2E2E2E2E2E2E2E2E2E2E2E2E2E2E2E2E2E2E2E2E2E2E2E2E2E2E2E2E2E2E2E2E2E2E2E2E2E2E2E2E2E2E2E2E2E2E2E2E2E2E2E2E2E2
310
E2E2E2E2E2E2E2E2E2E2E2E2E2E2E2E2E2E2E2E2E2E2E2E2E2E2E2E2E2E2E2E2E2E2E2E2E2E2F5E2E2E2E2E2E2E2E2E2E2E2E2E2E2E2F5E2E2E2E2E2E2E2E2E2E2E2F5F5E2E2E2E2E2E2E2E2E2E2E2F5E2E2E2E2E2E2E2E2E2E2E2E2E2E2E2F5E2E2E2E2E2E2E2E2E2E2E2E2E2E2E2E2E2E2E2E2E2E2E2E2E2E2E2E2E2E2E2
310
E2E2E2E2E2E2E2E2E2E2E2E2E2E2E2E2E2E2E2E2E2E2E2E2E2E2E2E2E2E2E2E2E2E2E2E2E2E2E2E2E2E2E2E2E2E2E2E2E2E2E2E2E2E2E2E2E2E2E2E2E2E2E2E2E2E2E2E2E2E2E2E2E2E2E2E2E2E2E2E2E2E2E2E2E2E2E2E2E2E2E2F5E2E2E2E2E2E2E2E2E2E2E2E2E2E2E2F5E2E2E2E2E2E2E2E2E2E2E2F5F5E2E2E2E2E2E2
310
E2E2E2E2E2F5E2E2E2E2E2E2E2E2E2E2E2E2E2E2E2F5E2E2E2E2E2E2E2E2E2E2E2E2E2E2E2E2E2E2E2E2E2E2E2E2E2E2E2E2E2E2E2E2E2E2E2E2E2E2E2E2E2E2E2E2E2E2E2E2E2E2E2E2E2E2E2E2E2E2E2E2E2E2E2E2E2E2E2E2E2E2E2E2E2E2E2E2E2E2E2E2E2E2E2E2E2E2E2E2E2E2E2E2E2E2E2E2E2E2E2E2E2E2E2E2E2
310
E2E2E2E2E2E2E2E2E2E2E2E2E2E2E2E2E2F5E2E2E2E2E2E2E2E2E2E2E2E2E2E2E2F5E2E2E2E2E2E2E2E2E2E2E2F5F5E2E2E2E2E2E2E2E2E2E2E2F5E2E2E2E2E2E2E2E2E2E2E2E2E2E2E2F5E2E2E2E2E2E2E2E2E2E2E2E2E2E2E2E2E2E2E2E2E2E2E2E2E2E2E2E2E2E2E2E2E2E2E2E2E2E2E2E2E2E2E2E2E2E2E2E2E2E2E2E2
310
E2E2E2E2E2E2E2E2E2E2E2E2E2E2E2E2E2E2E2E2E2E2E2E2E2E2E2E2E2E2E2E2E2E2E2E2E2E2E2E2E2E2E2E2E2E2E2E2E2E2E2E2E2E2E2E2E2E2E2E2E2E2E2E2E2E2E2E2E2E2F5E2E2E2E2E2E2E2E2E2E2E2E2E2E2E2F5E2E2E2E2E2E2E2E2E2E2E2F5F5E2E2E2E2E2E2E2E2E2E2E2F5E2E2E2E2E2E2E2E2E2E2E2E2E2E2E2
310
F5E2E2E2E2E2E2E2E2E2E2E2E2E2E2E2E2E2E2E2E2E2E2E2E2E2E2E2E2E2E2E2E2E2E2E2E2E2E2E2E2E2E2E2E2E2E2E2E2E2E2E2E2E2E2E2E2E2E2E2E2E2E2E2E2E2E2E2E2E2E2E2E2E2E2E2E2E2E2E2E2E2E2E2E2E2E2E2E2E2E2E2E2E2E2E2E2E2E2E2E2E2E2E2E2E2E2E2E2E2E2E2E2E2E2E2E2E2E2E2E2E2E2F5E2E2E2
310
E2E2E2E2E2E2E2E2E2E2E2E2F5E2E2E2E2E2E2E2E2E2E2E2F5F5E2E2E2E2E2E2E2E2E2E2E2F5E2E2E2E2E2E2E2E2E2E2E2E2E2E2E2F5E2E2E2E2E2E2E2E2E2E2E2E2E2E2E2E2E2E2E2E2E2E2E2E2E2E2E2E2E2E2E2E2E2E2E2E2E2E2E2E2E2E2E2E2E2E2E2E2E2E2E2E2E2E2E2E2E2E2E2E2E2E2E2E2E2E2E2E2E2E2E2E2E2
310
E2E2E2E2E2E2E2E2E2E2E2E2E2E2E2E2E2E2E2E2E2E2E2E2E2E2E2E2E2E2E2E2E2E2E2E2E2E2E2E2E2E2E2E2E2E2E2E2E2F5E2E2E2E2E2E2E2E2E2E2E2E2E2E2E2F5E2E2E2E2E2E2E2E2E2E2E2F5F5E2E2E2E2E2E2E2E2E2E2E2E2E2E2E2E2E2E2E2E2E2E2E2E2E2E2E2F5E2E2E2E2E2E2E2E2E2E2E2E2E2E2E2E2E2E2E2E2
310
E2E2E2E2E2E2E2E2E2E2E2E2E2E2E2E2E2E2E2E2E2E2E2E2E2E2E2E2E2E2E2E2E2E2E2E2E2E2E2E2E2E2E2E2E2E2E2E2E2E2E2E2E2E2E2E2E2E2E2E2E2E2E2E2E2E2E2E2E2E2E2E2E2E2E2E2E2E2E2E2E2E2E2E2E2E2E2E2E2E2E2E2E2E2E2E2E2E2E2E2E2E2F5E2E2E2E2E2E2E2E2E2E2E2E2E2E2E2E2E2E2E2E2E2E2E2E2
310
E2E2E2F5F5E2E2E2E2E2E2E2E2E2E2E2E2E2E2E2E2E2E2E2E2E2E2E2E2E2E2E2F5E2E2E2E2E2E2E2E2E2E2E2E2E2E2E2E2E2E2E2E2E2E2E2E2E2E2E2E2E2E2E2E2E2E2E2E2E2E2E2E2E2E2E2E2E2E2E2E2E2E2E2E2E2E2E2E2E2E2E2E2E2E2E2E2E2E2E2E2E2E2E2E2E2E2E2E2E2E2E2E2E2E2E2E2E2E2E2E2E2E2E2E2E2E2
310
E2E2E2E2E2E2E2E2E2E2E2E2E2E2E2E2E2E2E2E2E2E2E2E2E2E2E2E2F5E2E2E2E2E2E2E2E2E2E2E2E2E2E2E2E2E2E2E2E2E2E2E2E2E2E2E2F5F5E2E2E2E2E2E2E2E2E2E2E2E2E2E2E2E2E2E2E2E2E2E2E2E2E2E2E2F5E2E2E2E2E2E2E2E2E2E2E2E2E2E2E2E2E2E2E2E2E2E2E2E2E2E2E2E2E2E2E2E2E2E2E2E2E2E2E2E2E2
310
E2E2E2E2E2E2E2E2E2E2E2E2E2E2E2E2E2E2E2E2E2E2E2E2E2E2E2E2E2E2E2E2E2E2E2E2E2E2E2E2E2E2E2E2E2E2E2E2E2E2E2E2E2E2E2E2E2E2E2E2E2E2E2E2E2E2E2E2E2E2E2E2E2E2E2E2E2E2E2E2E2F5E2E2E2E2E2E2E2E2E2E2E2E2E2E2E2E2E2E2E2E2E2E2E2E2E2E2E2F5F5E2E2E2E2E2E2E2E2E2E2E2E2E2E2E2E2
310
E2E2E2E2E2E2E2E2E2E2E2F5F5F5F5F5F5F5F5F5F5F5F5F5F5F5F5F5F5F5F5F5F5F5F5F5F5F5F5F5F5F5F5F5F5F5F5F5F5F5F5F5F5F5F5F5F5F5F5F5F5F5F5F5F5F5F5F5F5F5F5F5F5F5F5F5F5F5F5F5F5F5F5F5F5F5F5F5F5F5F5F5F5F5F5F5F5F5F5F5F5F5F5F5F5F5F5F5F5F5F5F5F5F5F5F5F5F5F5F5F5F5F5F5F5F5F5
310
F5F5F5F5F5F5F5F5E2E2E2E2E2E2E2E2E2E2E2E2E2E2E2E2E2E2E2E2E2E2E2E2E2E2E2F5F5E2E2E2E2E2E2E2E2E2E2E2E2E2E2E2E2E2E2E2E2E2E2E2E2E2E2E2E2E2E2E2E2E2E2E2E2E2E2E2E2E2E2E2E2E2E2E2E2E2E2E2E2E2E2E2E2E2E2E2E2E2E2E2E2E2E2E2E2E2E2E2E2E2E2E2E2E2E2E2E2E2E2E2E2E2E2E2E2E2E2
310
E2E2E2E2E2E2E2E2E2E2E2E2E2E2E2E2E2E2E2E2E2E2E2E2E2E2E2E2E2E2E2E2E2E2E2E2E2E2E2E2E2E2E2E2E2E2E2E2E2E2E2E2E2E2E2E2E2E2E2E2E2E2E2E2E2E2E2E2E2E2E2E2E2E2E2E2E2E2E2E2E2E2E2E2E2E2E2E2F5F5E2E2E2E2E2E2E2E2E2E2E2E2E2E2E2E2E2E2E2E2E2E2E2E2E2E2E2E2E2E2E2E2E2E2E2E2E2
310
E2E2E2E2E2E2E2E2E2E2E2E2E2E2E2E2E2E2E2E2E2E2E2E2E2E2E2E2E2E2E2E2E2E2E2E2E2E2E2E2E2E2E2E2E2E2E2E2E2E2E2E2E2E2E2E2E2E2E2E2E2E2E2E2E2E2E2E2E2E2E2E2E2E2E2E2E2E2E2E2E2E2E2E2E2E2E2E2E2E2E2E2E2E2E2E2E2E2E2E2E2E2E2E2E2E2E2E2E2E2E2E2E2E2E2E2E2E2E2E2E2E2E2E2E2E2E2
310
E2E2E2E2E2E2E2E2E2E2E2E2E2E2F5F5E2E2E2E2E2E2E2E2E2E2E2E2E2E2E2E2E2E2E2E2E2E2E2E2E2E2E2E2E2E2E2E2E2E2E2E2E2E2E2E2E2E2E2E2E2E2E2E2E2E2E2E2E2E2E2E2E2E2E2E2E2E2E2E2E2E2E2E2E2E2E2E2E2E2E2E2E2E2E2E2E2E2E2E2E2E2E2E2E2E2E2E2E2E2E2E2E2E2E2E2E2E2E2E2E2E2E2E2E2E2E2
310
E2E2E2E2E2E2E2E2E2E2E2E2E2E2E2E2E2E2E2E2E2E2E2E2E2E2E2E2E2E2E2E2E2E2E2E2E2E2E2E2E2E2E2E2E2E2E2E2E2E2E2E2E2E2E2E2E2E2E2E2E2E2E2E2E2E2E2F5F5E2E2E2E2E2E2E2E2E2E2E2E2E2E2E2E2E2E2E2E2E2E2E2E2E2E2E2E2E2E2E2E2E2E2E2E2E2E2E2E2E2E2E2E2E2E2E2E2E2E2E2E2E2E2E2E2E2E2
310
E2E2E2E2E2E2E2E2E2E2E2E2E2E2E2E2E2E2E2E2E2E2E2E2E2E2E2E2E2E2E2E2E2E2E2E2E2E2E2E2E2E2E2E2E2E2E2E2E2E2E2E2E2E2E2E2E2E2E2E2E2E2E2E2E2E2E2E2E2E2E2E2E2E2E2E2E2E2E2E2E2E2E2E2E2E2E2E2E2E2E2E2E2E2E2E2E2E2E2E2E2E2E2E2E2E2E2E2E2E2E2E2E2E2E2E2E2E2E2E2F5F5E2E2E2E2E2
310
E2E2E2E2E2E2F5E2E2E2E2E2E2E2E2E2E2E2E2E2E2E2E2E2E2E2E2E2E2E2E2E2E2E2E2E2E2E2E2E2E2E2E2E2E2E2E2E2E2E2E2E2E2E2E2E2E2E2E2E2E2E2E2E2E2E2E2E2E2E2E2E2E2E2E2E2E2E2E2E2E2E2E2E2E2E2E2E2E2E2E2E2E2E2E2E2E2E2E2E2E2E2E2E2E2E2E2E2E2E2E2E2E2E2E2E2E2E2E2E2E2E2E2E2E2E2E2
310
E2E2E2E2E2E2E2E2E2E2E2E2E2E2E2E2E2E2E2E2E2E2E2E2E2E2E2E2E2E2E2E2E2E2F5E2E2E2E2E2E2E2E2E2E2E2F5F5E2E2E2E2E2E2E2E2E2E2E2F5E2E2E2E2E2E2E2E2E2E2E2E2E2E2E2E2E2E2E2E2E2E2E2E2E2E2E2E2E2E2E2E2E2E2E2E2E2E2E2E2E2E2E2E2E2E2E2E2E2E2E2E2E2E2E2E2E2E2E2E2E2E2E2E2E2E2E2
310
E2E2E2E2E2E2E2E2E2E2E2E2E2E2E2E2E2E2E2E2E2E2E2E2E2E2E2E2E2E2E2E2E2E2E2E2E2E2E2E2E2E2E2E2E2E2E2E2E2E2E2E2E2E2E2E2E2E2E2E2E2E2E2E2E2E2E2E2E2E2E2E2E2E2E2E2E2E2E2E2E2E2E2E2E2E2E2F5E2E2E2E2E2E2E2E2E2E2E2F5F5E2E2E2E2E2E2E2E2E2E2E2F5E2E2E2E2E2E2E2E2E2E2E2E2E2E2
310
E2E2E2E2E2E2E2E2E2E2E2E2E2E2E2E2E2E2E2E2E2E2E2E2E2E2E2E2E2E2E2E2E2E2E2E2E2E2E2E2E2E2E2E2E2E2E2E2E2E2E2E2E2E2E2E2E2E2E2E2E2E2E2E2E2E2E2E2E2E2E2E2E2E2E2E2E2E2E2E2E2E2E2E2E2E2E2E2E2E2E2E2E2E2E2E2E2E2E2E2E2E2E2E2E2E2E2E2E2E2E2E2E2E2E2E2E2E2E2E2E2E2E2E2E2E2E2
310
E2E2E2E2E2E2E2E2E2E2E2E2E2F5E2E2E2E2E2E2E2E2E2E2E2F5F5E2E2E2E2E2E2E2E2E2E2E2F5E2E2E2E2E2E2E2E2E2E2E2E2E2E2E2E2E2E2E2E2E2E2E2E2E2E2E2E2E2E2E2E2E2E2E2E2E2E2E2E2E2E2E2E2E2E2E2E2E2E2E2E2E2E2E2E2E2E2E2E2E2E2E2E2E2E2E2E2E2E2E2E2E2E2E2E2E2E2E2E2E2E2E2E2E2E2E2E2
310
E2E2E2E2E2E2E2E2E2E2E2E2E2E2E2E2E2E2E2E2E2E2E2E2E2E2E2E2E2E2E2E2E2E2E2E2E2E2E2E2E2E2E2E2E2E2E2E2E2E2E2E2E2E2E2E2E2E2E2E2E2E2E2E2E2E2F5E2E2E2E2E2E2E2E2E2E2E2F5F5E2E2E2E2E2E2E2E2E2E2E2F5E2E2E2E2E2E2E2E2E2E2E2E2E2E2E2E2E2E2E2E2E2E2E2E2E2E2E2E2E2E2E2E2E2E2E2
310
E2E2E2E2E2E2E2E2E2E2E2E2E2E2E2E2E2E2E2E2E2E2E2E2E2E2E2E2E2E2E2E2E2E2E2E2E2E2E2E2E2E2E2E2E2E2E2E2E2E2E2E2E2E2E2E2E2E2E2E2E2E2E2E2E2E2E2E2E2E2E2E2E2E2E2E2E2E2E2E2E2E2E2E2E2E2E2E2E2E2E2E2E2E2E2E2E2E2E2E2E2E2E2E2E2E2E2E2E2E2E2E2E2E2E2E2E2E2E2F5E2E2E2E2E2E2E2
310
E2E2E2E2F5F5E2E2E2E2E2E2E2E2E2E2E2F5E2E2E2E2E2E2E2E2E2E2E2E2E2E2E2E2E2E2E2E2E2E2E2E2E2E2E2E2E2E2E2E2E2E2E2E2E2E2E2E2E2E2E2E2E2E2E2E2E2E2E2E2E2E2E2E2E2E2E2E2E2E2E2E2E2E2E2E2E2E2E2E2E2E2E2E2E2E2E2E2E2E2E2E2E2E2E2E2E2E2E2E2E2E2E2E2E2E2E2E2E2E2E2E2E2E2E2E2E2
310
E2E2E2E2E2E2E2E2E2E2E2E2E2E2E2E2E2E2E2E2E2E2E2E2E2E2E2E2E2E2E2E2E2E2E2E2E2E2E2E2E2E2E2E2E2F5E2E2E2E2E2E2E2E2E2E2E2F5F5E2E2E2E2E2E2E2E2E2E2E2F5E2E2E2E2E2E2E2E2E2E2E2E2E2E2E2E2E2E2E2E2E2E2E2E2E2E2E2E2E2E2E2E2E2E2E2E2E2E2E2E2E2E2E2E2E2E2E2E2E2E2E2E2E2E2E2E2
310
E2E2E2E2E2E2E2E2E2E2E2E2E2E2E2E2E2E2E2E2E2E2E2E2E2E2E2E2E2E2E2E2E2E2E2E2E2E2E2E2E2E2E2E2E2E2E2E2E2E2E2E2E2E2E2E2E2E2E2E2E2E2E2E2E2E2E2E2E2E2E2E2E2E2E2E2E2E2E2E2E2E2E2E2E2E2E2E2E2E2E2E2E2E2E2E2E2E2F5E2E2E2E2E2E2E2E2E2E2E2F5F5E2E2E2E2E2E2E2E2E2E2E2F5F5F5F5
310
F5F5F5F5F5E2E2E2E2E2E2E2E2E2F5F5F5F5F5F5F5F5F5F5F5F5F5F5F5F5F5E2E2E2E2E2E2E2E2E2F5F5F5F5F5F5F5F5F5F5F5F5F5F5F5F5E2E2E2E2E2E2E2E2E2E2F5F5F5F5F5F5F5F5F5F5F5F5F5F5F5F5E2E2E2E2E2E2E2E2E2E2F5F5F5F5F5F5F5F5F5F5F5F5F5F5F5F5E2E2E2E2E2E2E2E2E2F5F5F5F5F5F5F5F5F5F5
310
F5F5F5F5F5F5F5E2E2E2E2E2E2E2E2E2F5F5F5F5F5F5F5F5F5E2E2E2E2E2E2E2E2E2E2E2F5F5E2E2E2E2E2E2E2E2E2E2E2E2E2E2E2E2E2E2E2E2E2E2E2E2E2E2E2E2E2E2E2E2E2E2E2E2E2E2E2E2E2E2E2E2E2E2E2E2E2E2E2E2E2E2E2E2E2E2E2E2E2E2E2E2E2E2E2E2E2E2E2E2E2E2E2E2E2E2E2E2E2E2E2E2E2E2E2E2E2
310
E2E2E2E2E2E2E2E2E2E2E2E2E2E2E2E2E2E2E2E2E2E2E2E2E2E2E2E2E2E2E2E2E2E2E2E2E2E2E2E2E2E2E2E2E2E2E2E2E2E2E2E2E2E2E2E2E2E2E2E2E2E2E2E2E2E2E2E2E2E2E2E2E2E2E2E2E2E2E2E2E2E2E2E2E2E2E2E2E2F5F5E2E2E2E2E2E2E2E2E2E2E2E2E2E2E2E2E2E2E2E2E2E2E2E2E2E2E2E2E2E2E2E2E2E2E2E2
310
E2E2E2E2E2E2E2E2E2E2E2E2E2E2E2E2E2E2E2E2E2E2E2E2E2E2E2E2E2E2E2E2E2E2E2E2E2E2E2E2E2E2E2E2E2E2E2E2E2E2E2E2E2E2E2E2E2E2E2E2E2E2E2E2E2E2E2E2E2E2E2E2E2E2E2E2E2E2E2E2E2E2E2E2E2E2E2E2E2E2E2E2E2E2E2E2E2E2E2E2E2E2E2E2E2E2E2E2E2E2E2E2E2E2E2E2E2E2E2E2E2E2E2E2E2E2E2
310
E2E2E2E2E2E2E2E2E2E2E2E2E2E2E2F5F5E2E2E2E2E2E2E2E2E2E2E2E2E2E2E2E2E2E2E2E2E2E2E2E2E2E2E2E2E2E2E2E2E2E2E2E2E2E2E2E2E2E2E2E2E2E2E2E2E2E2E2E2E2E2E2E2E2E2E2E2E2E2E2E2E2E2E2E2E2E2E2E2E2E2E2E2E2E2E2E2E2E2E2E2E2E2E2E2E2E2E2E2E2E2E2E2E2E2E2E2E2E2E2E2E2E2E2E2E2E2
310
E2E2E2E2E2E2E2E2E2E2E2E2E2E2E2E2E2E2E2E2E2E2E2E2E2E2E2E2E2E2E2E2E2E2E2E2E2E2E2E2E2E2E2E2E2E2E2E2E2E2E2E2E2E2E2E2E2E2E2E2E2E2E2E2E2E2E2E2F5F5F5F5F5F5F5F5F5F5F5F5F5F5F5F5F5F5F5F5F5F5F5F5F5F5F5F5F5F5F5F5F5F5F5F5F5F5F5F5F5F5F5F5F5F5F5F5F5F5F5F5F5F5F5F5F5F5F5
310
F5F5F5F5F5F5F5F5F5F5F5F5F5F5F5F5F5F5F5F5F5F5F5F5F5F5F5F5F5F5F5F5F5F5F5F5F5F5F5F5F5F5F5F5F5F5F5F5F5F5F5F5F5F5F5F5F5F5F5F5F5F5F5F5F5F5F5F5F5F5F5F5F5F5F5F5F5F5F5F5F5F5F5F5F5F5F5F5F5F5F5F5F5F5F5F5F5F5F5F5F5F5F5F5F5F5F5F5F5F5F5F5F5F5F5F5F5F5F5F5F5F5EFEFEFEFEF
310
EFEFEFEFEFEFEFEFEFEFEFEFEFEFEFEFEFEFEFEFEFEFEFEFEFEFEFEFEFEFEFEFEFEFEFEFEFEFEFEFEFEFEFEFEFEFEFEFEFEFEFEFEFEFEFEFEFEFEFEFEFEFEFEFEFEFEFEFEFEFEFEFEFEFEFEFEFEFEFEFEFEFEFEFEFEFEFEFEFEFEFEFEFEFEFEFEFEFEFEFEFEFEFEFEFEFEFEFEFEFEFEFEFEFEFEFEFEFEFEFEFEFEFEFEFEFEF
310
EFEFEFEFEFEFEFEFEFEFEFEFEFEFEFEFEFEFEFEFEFEFEFEFEFEFEFEFEFEFEFEFEFEFEFEFEFEFEFEFEFEFEFEFEFEFEFEF
  0
ENDSEC
  0
EOF
